20131209

CARLOS SANTANA REVELATIONS TAB (COVER BY STEVIE LAMONT)

Stevie Lamont plays a cool guitar cover of Santana's Revelations.
See the TAB under the video.



CARLOS SANTANA REVELATIONS TAB

PDF >>

Part 1

e-7h8p7--------------------------7h8p7----------------------------------
B-------5~-----------------------------5~-------------------------------
G-----------------------------------------------------------------------
D-----------------------------------------------------------------------
A-----------------------------------------------------------------------
E-----------------------------------------------------------------------


e-7h8p7.----------------------------------------------------------------
B-----------------------------------------------------------------------
G---------7/9---\7/9~~~-----------\7~-----------------------------------
D-----------------------------------------------------------------------
A-----------------------------------------------------------------------
E-----------------------------------------------------------------------


e---------------------5h6p5---------------------------------------------
B-------5~------6.----------8~------------------------------------------
G-5h7-----------------------------------7/9---\7/9~---------------------
D-----------------------------------------------------------------------
A-----------------------------------------------------------------------
E-----------------------------------------------------------------------



e-7h8p7--------------------------7h8p7----------------------------------
B-------5~-----------------------------5~-------------------------------
G-----------------------------------------------------------------------
D-----------------------------------------------------------------------
A-----------------------------------------------------------------------
E-----------------------------------------------------------------------


e-----------------------------------------------------------------------
B-12h13p12---15(17)-----15(17)-----------------(15)-15~----------\\\----
G-----------------------------------------------------------------------
D-----------------------------------------------------------------------
A-----------------------------------------------------------------------
E-----------------------------------------------------------------------


e-8/10.---8.---5.-------------------------5.----------------------------
B-----------------------------------------------------------------------
G-------------------(9)(7)p5-----5-7(9)--------(9)(7)---5---------------
D----------------------------7------------------------------7---5-------
A-----------------------------------------------------------------------
E-----------------------------------------------------------------------


e-------------------------5---------------------------------------------
B---------------------5-------------------------------------------------
G-----------------5-----------------------------------------------------
D-5h7--p5-----7---------------------------------------------------------
A---------7-------------------------------------------------------------
E-----------------------------------------------------------------------


Part 2

e-5-7-8-7h8~----------------7h8p7~--------------------------------------
B-----------------------------------------------------------------------
G-----------------------------------------------------------------------
D-----------------------------------------------------------------------
A-----------------------------------------------------------------------
E-----------------------------------------------------------------------


e----5h7~---------------------------------------------------------------
B-5.--------------------------8/10---8h10~------------------------------
G-----------------------------------------------------------------------
D-----------------------------------------------------------------------
A-----------------------------------------------------------------------
E-----------------------------------------------------------------------


e-----------------------------------------------------------------------
B-----------------------------------------------------------------------
G-7/8\7/9---5-7/8\7p5---------------------------------------------------
D---------------------7-\-----------------------------------------------
A-----------------------------------------------------------------------
E-----------------------------------------------------------------------


e----------5------------------------------------------------------------
B--------5---8-5--------------------------------------------------------
G-7(9)-----------7(9)(7)p5---7p5-----------------------------4--h5--/7~-
D--------------------------7-----7-5-----------------5--h7--------------
A------------------------------------7\5-3---3-5/7----------------------
E------------------------------------------5----------------------------


e-5-7-8-7h8~-------------------8-8--h10-10~-----------------------------
B-----------------------------------------------------------------------
G-----------------------------------------------------------------------
D-----------------------------------------------------------------------
A-----------------------------------------------------------------------
E-----------------------------------------------------------------------


e-------------------------------15.-------------------------------------
B-----------15-15~-------------------15(17)-----15(17)---15(17)~-----\\\
G-12---12---------------------------------------------------------------
D-----------------------------------------------------------------------
A-----------------------------------------------------------------------
E-----------------------------------------------------------------------


e-8/10.---8.---5.-------------------------5.----------------------------
B-----------------------------------------------------------------------
G-------------------(9)(7)p5-----5-7(9)--------(9)(7)---5---------------
D----------------------------7------------------------------7---5-------
A-----------------------------------------------------------------------
E-----------------------------------------------------------------------


e-------------------------5---------------------------------------------
B---------------------5-------------------------------------------------
G-----------------5-----------------------------------------------------
D-5h7--p5-----7---------------------------------------------------------
A---------7-------------------------------------------------------------
E-----------------------------------------------------------------------


Part 3

e-7h8p7--------------------------7h8p7----------------------------------
B-------5~-----------------------------5~-------------------------------
G-----------------------------------------------------------------------
D-----------------------------------------------------------------------
A-----------------------------------------------------------------------
E-----------------------------------------------------------------------


e-7h8p7.----------------------------------------------------------------
B-----------------------------------------------------------------------
G---------7/9---\7/9~~~-----------\7~---------------p5------------------
D------------------------------------------------------7.---------------
A-----------------------------------------------------------------------
E-----------------------------------------------------------------------


e-------------------------5h6p5-----------------------------------------
B-----------5---------6.--------8~------------8-------------------------
G-5h7---------------------------------------7---7/9\7/9~-------------\--
D-----------------------------------------------------------------------
A-----------------------------------------------------------------------
E-----------------------------------------------------------------------


e-7h8p7--------------------------7h8p7----------------------------------
B-------5~-----------------------------5~-------------------------------
G-----------------------------------------------------------------------
D-----------------------------------------------------------------------
A-----------------------------------------------------------------------
E-----------------------------------------------------------------------


e-----------------------------------------------------------------------
B-12h13p12---15(17)-----15(17)-----------------(15)-15~----------\\\----
G-----------------------------------------------------------------------
D-----------------------------------------------------------------------
A-----------------------------------------------------------------------
E-----------------------------------------------------------------------


e-8/10.---8.---5.-------------------------5.----------------------------
B-----------------------------------------------------------------------
G-------------------(9)(7)p5-----5-7(9)--------(9)(7)---5---------------
D----------------------------7------------------------------7---5---5h7~
A-----------------------------------------------------------------------
E-----------------------------------------------------------------------



Part 4

e---1.----------1.--------3-3-3-----------------------------------------
B---1.--3-------1.--3-----3-3-3---5-----5-5.--x---5.----5---5.----------
G-2-2.--4-----2-2.--4-----4-4-4---5-----5-5.--x---5.----5---5.----------
D-3-3.--5-----3-3.--5-----5-5-5---7-----7-7.--x---7.--7-7---7.----------
A-3-3.--5-----3-3.--5-----5-5-5---7-----7-7.--x---7.----7---7.----------
E-----------------------------------------------------------------------


e-------------1-------------3-------------------------------------------
B-----------1---1-3-------3---3-----------------------------------------
G-2-------2-------4-----4-------4---------------------------------------
D-3-----3---------5---------------7---------7-\\\-----------------------
A-3---------------------------------------------------------------------
E-----------------------------------------------------------------------


e--------------------------12------------------------15.----------------
B----12-13-13~---------15----15~----------15---15.-------15(17)(15)(17)\
G-14-----------------------------------12-------------------------------
D-----------------------------------------------------------------------
A-----------------------------------------------------------------------
E-----------------------------------------------------------------------


e--------------------------12------------------------15.----------------
B----12-13-13~---------15----15~----------15---15.-------15(17)---\-----
G-14-----------------------------------12-------------------------------
D-----------------------------------------------------------------------
A-----------------------------------------------------------------------
E-----------------------------------------------------------------------


e--------------------------12------------------------15.----------------
B----12-13-13~---------15----15~----------15---15.-------15(17)(15)(17)\
G-14-----------------------------------12-------------------------------
D-----------------------------------------------------------------------
A-----------------------------------------------------------------------
E-----------------------------------------------------------------------


e----------------------12h13p12-------------------------15.-------------
B----12-13-13~------------------15~----------15---15.-------15(17)---\--
G-14--------------------------------------12----------------------------
D-----------------------------------------------------------------------
A-----------------------------------------------------------------------
E-----------------------------------------------------------------------



Part 5

e-5-8-8-8'----5-------------------------------5-------------------------
B-5-------------8-5-------------------------5---8-5---------------------
G-------------------7(9).-(9)(7)p5---5-7(9)---------7(9)-7-5-7p5--------
D----------------------------------7-----------------------------7-5----
A-----------------------------------------------------------------------
E-----------------------------------------------------------------------


e-----------------------------------------------------------------------
B-----------------------------------------------------------------------
G-----------------------------------------------------------------------
D-7p5-7---------------5-7---7-7-7-9---9-9\7-\---------------------------
A-------7\5-3---5/7-----------------------------------------------------
E-------------5---------------------------------------------------------


e----------12-15----------12-12----------12-12----------12-12-----------
B-15(17)---------15(17)---------15(17)---------15(17)-------------------
G-----------------------------------------------------------------------
D-----------------------------------------------------------------------
A-----------------------------------------------------------------------
E-----------------------------------------------------------------------


e----------12-12----------12-12----------12-12-12-15(17)-----15(17)-----
B-15(17)---------15(17)---------15(17)----------------------------------
G-----------------------------------------------------------------------
D-----------------------------------------------------------------------
A-----------------------------------------------------------------------
E-----------------------------------------------------------------------


e-15(17)---15(17)---15(17)---15p12--------------------------------------
B----------------------------------15---15(17)---15p13p12---------------
G---------------------------------------------------------14p12-14p12---
D-----------------------------------------------------------------------
A-----------------------------------------------------------------------
E-----------------------------------------------------------------------


e-----------------------------------------------------------------------
B-----------------------------------------------------------------------
G----------------------------12-14(16)---14(16)---14(16)---14(17)-------
D-14\12p10----10-------12h14--------------------------------------------
A----------12----12/14--------------------------------------------------
E-----------------------------------------------------------------------


e-----------------------------------------------------------------------
B-----------------------------------------------------------------------
G-(17)(14)p12----12h14-14~---12----12-----------------------------------
D-------------14----------------14----14\12p10h12p10-12p10--------------
A----------------------------------------------------------12p10-12-\\\-
E-----------------------------------------------------------------------



Part 6

e-20p17-------20p17-20p17-------20p17-20p17-------20p17-20(22)----------
B-------20p17-------------20p17-------------20p17-----------------------
G-----------------------------------------------------------------------
D-----------------------------------------------------------------------
A-----------------------------------------------------------------------
E-----------------------------------------------------------------------


e-20(22)---20(22)---20(22)---20(22)-----20p17----17---------------------
B---------------------------------------------20----20(22)--------------
G-----------------------------------------------------------------------
D-----------------------------------------------------------------------
A-----------------------------------------------------------------------
E-----------------------------------------------------------------------


e-17--------------------------17----------------------------------------
B----20-17-----------------------20-17----------------------------------
G----------19-17----17-19(21)----------19(21)(19)-17----17p19-----------
D----------------19----------------------------------19-------19-17-----
A-------------------------------------------------------------------19-\
E-----------------------------------------------------------------------



Part 7

e-----------------------------------------------------------------------
B-----------------------------------------------------------------------
G-7(9)-------(7)p5-7p5---5----------------------------------------------
D----------------------7---7-5------------------------------------------
A------------------------------7\5p3------------------------------------
E-----------------------------------------------------------------------


e-------------------------------------5-----5---5-5-5-5---5-5-5---------
B-------------------------------5---5-----5-----------------------------
G---------------4---4/5---5---7-----------------------------------------
D-------5-7---7---------------------------------------------------------
A-5/7-------------------------------------------------------------------
E-----------------------------------------------------------------------


e-xxxxx/xxxxxxx/xxxxxx/xxxxx/xxxxxx/xxxxxx/xxxxxx/xxxxxx/xxxxx----------
B-----------------------------------------------------------------------
G-----------------------------------------------------------------------
D-----------------------------------------------------------------------
A-----------------------------------------------------------------------
E-----------------------------------------------------------------------


e-22(24)---22(24)---22(24)---\\\----------------------------------------
B-----------------------------------------------------------------------
G-----------------------------------------------------------------------
D-----------------------------------------------------------------------
A-----------------------------------------------------------------------
E-----------------------------------------------------------------------


Part 8

e-12-12-13p12----12~---------------------12-\---------------------------
B-------------15----------15-15-12-13-15--------------------------------
G-----------------------------------------------------------------------
D-----------------------------------------------------------------------
A-----------------------------------------------------------------------
E-----------------------------------------------------------------------


e-12-12----------12----------12----------12----------12-----------------
B-------15(17)------(17)(15)----(17)(15)----(17)(15)--------------------
G-----------------------------------------------------------------------
D-----------------------------------------------------------------------
A-----------------------------------------------------------------------
E-----------------------------------------------------------------------


e----------12-h15p12----------------------------------------------------
B-15(17)-------------15-12-15p12----------------------------------------
G--------------------------------14-12-14p12h14p12----------------------
D--------------------------------------------------14-------------------
A-----------------------------------------------------------------------
E-----------------------------------------------------------------------


e-12-12-13p12----12~---------------------12-\---------------------------
B-------------15----------15-15-12-13-15--------------------------------
G-----------------------------------------------------------------------
D-----------------------------------------------------------------------
A-----------------------------------------------------------------------
E-----------------------------------------------------------------------


e-15(17)-----15(17)---15(17)---15(17)---15(17)---15p12----12----------12
B------------------------------------------------------15----15(17)-----
G-----------------------------------------------------------------------
D-----------------------------------------------------------------------
A-----------------------------------------------------------------------
E-----------------------------------------------------------------------


e-----------------------------------------------------------------------
B-15-12-----------------------------------------------------------------
G-------14p12-----------------------------------------------------------
D-------------14.-------------------------------------------------------
A-----------------------------------------------------------------------
E-----------------------------------------------------------------------


e-12-12-13p12----12~---------------------12-\---------------------------
B-------------15----------15-15-12-13-15--------------------------------
G-----------------------------------------------------------------------
D-----------------------------------------------------------------------
A-----------------------------------------------------------------------
E-----------------------------------------------------------------------


e-20(22)-----20(22)---20(22)---20(22)---20(22)-----20p17----17----------
B--------------------------------------------------------20----20~------
G-----------------------------------------------------------------------
D-----------------------------------------------------------------------
A-----------------------------------------------------------------------
E-----------------------------------------------------------------------


e-----------------------------------------------------------------------
B-17--------------------------------------------------------------------
G----19p17--------------------------------------------------------------
D----------19-\\\-------------------------------------------------------
A-----------------------------------------------------------------------
E-----------------------------------------------------------------------


e-12-12-13---12h13p12----12---------------------------------------------
B---------------------15----15-13-12h13---12----12----------------------
G--------------------------------------------14----14-12----------------
D--------------------------------------------------------14-14\12-10----
A--------------------------------------------------------------------12-
E-----------------------------------------------------------------------


e----------------------8(10)---------8(10)---8-7-5----------------------
B--------------------------------------------------5--------------------
G-----------------------------------------------------------------------
D-10h12p10--------------------------------------------------------------
A----------12-\---------------------------------------------------------
E-----------------------------------------------------------------------


e-----------------------------------------------------------------------
B-8p5-8p5---8p5-8p5-----------------------------------------------------
G---------7---------7p5-7p5-7p5---7p5-----------------------------------
D-------------------------------7-----7p5---------------5-7-5-7/9~------
A-----------------------------------------7\5p3---3-5/7-----------------
E-----------------------------------------------5-----------------------


e-----------------------------------------------------------------------
B-----------------------------------------------------------------------
G-----------------------------------------------------------------------
D-(9)---(10)(9)---9-\-7---7~--------------------------------------------
A-----------------------------------------------------------------------
E-----------------------------------------------------------------------