20131203

COMMANDER CODY HOT ROD LINCOLN TAB (INTRO WITH LESSON)

Perfect detailed guitar lesson of Commander Cody - Hot Rod Lincoln intro part.
Thanks Bruce Lindquist for the lesson.
See the TAB below.



COMMANDER CODY HOT ROD LINCOLN TAB

PDF >>

e-----------------------------------------------------------------------
B-----------------------------------------------------------------------
G-----------------------------------------------------------------------
D-----------------------------------------------------------------------
A-----------------------------------------------------------------------
E-3'--------------------------------------------------------------------


e-----------------------------------------------------------------------
B-----------------------------------------------------------------------
G-----------------------------------------------------------------------
D-----------------------------------------2-2-4-2-5-2-4-5-4-2-----------
A---------2-2-4-2-5-2-4-5-4-2-----0-0-3-4---------------------3-4-------
E-0-0-3-4---------------------3-4---------------------------------------


e-----------------------------------------------------------------------
B-----------------------------------------------------------------------
G-----------------------------------------------------------------------
D---------4-4-6-4-7-4-6-7-6-4-----2-2-----2-2-----2-----2---2-2---------
A-2-2-5-6---------------------5-6-----4p2-----4p2---4p2-----------------
E-----------------------------------------------------------------------



e-----------------------------------------------------------------------
B-----------------------------------------------------------------------
G-----------------------------------------------------------------------
D-----------------------------------------2-2-4-2-5-2-4-5-4-2-----------
A---------2-2-4-2-5-2-4-5-4-2-----0-0-3-4---------------------3-4-------
E-0-0-3-4---------------------3-4---------------------------------------


e-----------------------------------------------------------------------
B-----------------------------------------------------------------------
G-----------------------------------------------------------------------
D---------4-4-6-4-7-4-6-7-6-4-----2-2-----2-2-----2-----2---------------
A-2-2-5-6---------------------5-6-----4p2-----4p2---4p2-----------------
E-----------------------------------------------------------------------