20131208

ELENA YEREVAN OLD GIPSY TAB (Ծեր Գնչուհին)


Elena Yerevan plays and sings OLD GIPSY with a single classical guitar.
Beautiful lady playing the guitar so cool.
Capo on the 3rd fret so a '-3-' means the open string in the TAB below.



ELENA YEREVAN OLD GIPSY TAB

PDF >>

Part 1

e-----------------------------------------------------------------------
B--------3-------3-------3-------3-------3-------3-------3-------3------
G------3-------3-------3-------3-------5-------5-------5-------5--------
D----7-------7-------7-------7-------7-------7-------7-------7----------
A-10-------8-------7-------6-------5------------------------------------
E------------------------------------------8-------6-------5------------


e-------------------------------------------------------10-------8------
B-------4-------3-------4-------3--------------8-------------8----------
G-------------3-------3-------3-------------11-----11-------------------
D-----5-----5-------5-------5-------5-----------------------------------
A---5-----------------------------------3-------------------------------
E-3---------------------------------------------------------------------


e---------------8-------6-------5---------------5-------6---6-----------
B-------7-----------7-------5-------------3---------3-------------------
G-----8-----8-------------------------5-------5-------------------------
D---7-------------------------------4-----------------------------------
A-3-----------------------------5---------------------------------------
E-----------------------------------------------------------------------



e-3---------------------------------------------------------------------
B-------4-------3-------4-----------------------------------------------
G-----3-------3-------3-----3-------------------------------------------
D-----------5-------5---------------------------------------------------
A-----------------------------------------------------------------------
E-3---------------------------------------------------------------------


Part 2

e-----------------------------------------------------------------------
B-------------------------------6-----4-----3---10-----8-----4h6--------
G-----------------------------------------5-----------------------------
D-----------------------------------------------------------------------
A-------------------------------3---------------3-----------------------
E-----------------------------------------------------------------------


e-----------------------------------------------------------------------
B-4-----3-------4-----3-----3h4-3-------------3-------------------------
G-----------3-------------3-----5-----5-------5-----5---5.--------------
D-----5-------------5---------------4-----4-------4---------------------
A---------------5---------------5---------------------------------------
E-3---------------------------------------------------------------------


e-----------------------------------------------------------------------
B---------------3-----4-----6~--6-----4-----3---10-----8-----4h6--------
G-5-----3---5-----------------------------5-----------------------------
D-----5-------------5---------------5-----------------------------------
A---------------5---------------3---------------3-----------------------
E-3---------------------------------------------------------------------


e-----------------------------------------------------------------------
B-4-----3-------4-----3-----3h4-3-------------3-------------------------
G-----------3-------------3-----5-----5-------5-----5-------------------
D-----5-------------5---------------4-----4-------4-----4---------------
A---------------5---------------5---------------------------------------
E-3---------------------------------------------------------------------


e-----------------3-----------------------------------------------------
B---------3-------------------------------------------------------------
G-----3-------3---------------------------------------------------------
D-----------------------------------------------------------------------
A-----------------------------------------------------------------------
E-3---------------------------------------------------------------------


Part 3

  Cm              D7              Gm
e-------------------------------------------------3---------------------
B---------4---------------3---------------3---------------3-------------
G-----5-------5-------5-------5-------3-------3-------3-------3---------
D-----------------------------------------------------------------------
A-3---------------5---------------5-------------------------------------
E-----------------------------------------------------------------------


  Cm                              Bb              G
e-----------------3-----------------------------------------------------
B---------4---------------4---------------3---------------3-------------
G-----5-------5-------5-------3-------3-------3-------4-------4---------
D-----------------------------------------------------------------------
A-3---------------------------------------------------------------------
E---------------------------------6---------------3---------------------


  Cm                              Gm7
e-----------------3-------------------------------6---------------------
B---------4---------------4---------------3---------------3-------------
G-----5-------5-------5-------5-------3-------3-------3-------3---------
D-----------------------------------------------------------------------
A-3---------------------------------------------------------------------
E---------------------------------3-------------------------------------

 
  D7                              Gm              G7
e-----------------5-----------------------------------------------------
B---------3---------------3---------------3---------------6-------------
G-----5-------5-------5-------5-------3-------3-------4-------4---------
D-----------------------------------------------------------------------
A-5-------------------------------5---------------5---------------------
E-----------------------------------------------------------------------


  Cm                              Gm7
e-----------------3-------------------------------6---------------------
B---------4---------------4---------------3---------------3-------------
G-----5-------5-------5-------5-------3-------3-------3-------3---------
D-----------------------------------------------------------------------
A-3---------------------------------------------------------------------
E---------------------------------3-------------------------------------


  D7                              Gm
e-----------------5-------------------------------3---------------------
B---------3---------------3---------------3---------------3-------------
G-----5-------5-------5-------5-------3-------3-------3-------3---------
D-----------------------------------------------------------------------
A-5-------------------------------5-------------------------------------
E-----------------------------------------------------------------------


  Cm              D7              Gm
e-------------------------------------------------3---------------------
B---------4---------------3---------------3---------------3-------------
G-----5-------5-------5-------5-------3-------3-------3-------3---------
D-----------------------------------------------------------------------
A-3---------------5---------------5-------------------------------------
E-----------------------------------------------------------------------


  F7                              Bb              G7
e-----------------5-----------------------------------------------------
B---------4---------------4---------------3---------------6-------------
G-----5-------5-------5-------5-------3-------3-------4-------4---------
D-----------------------------------------------------------------------
A-3---------------------------------------------------------------------
E---------------------------------6---------------3---------------------


  Cm                              Gm7
e-----------------3-------------------------------6---------------------
B---------4---------------4---------------3---------------3-------------
G-----5-------5-------5-------5-------3-------3-------3-------3---------
D-----------------------------------------------------------------------
A-3---------------------------------------------------------------------
E---------------------------------3-------------------------------------

 
  D7                              Gm              G7
e-----------------5-----------------------------------------------------
B---------3---------------3---------------3---------------6-------------
G-----5-------5-------5-------5-------3-------3-------4-------4---------
D-----------------------------------------------------------------------
A-5-------------------------------5---------------5---------------------
E-----------------------------------------------------------------------


  Cm                              Gm7
e-----------------3-------------------------------6---------------------
B---------4---------------4---------------3---------------3-------------
G-----5-------5-------5-------5-------3-------3-------3-------3---------
D-----------------------------------------------------------------------
A-3---------------------------------------------------------------------
E---------------------------------3-------------------------------------


  D7                              Gm
e-----------------5-------------------------------3---------------------
B---------3---------------3---------------3---------------3-------------
G-----5-------5-------5-------5-------3-------3-------3-------3---------
D-----------------------------------------------------------------------
A-5-------------------------------5-------------------------------------
E-----------------------------------------------------------------------


Part 4 = Part 2


Part 5

  Cm              D7              Gm
e-------------------------------------------------3---------------------
B---------4---------------3---------------3---------------3-------------
G-----5-------5-------5-------5-------3-------3-------3-------3---------
D-----------------------------------------------------------------------
A-3---------------5---------------5-------------------------------------
E-----------------------------------------------------------------------


  Cm                              Bb              G
e-----------------3-----------------------------------------------------
B---------4---------------4---------------3---------------3-------------
G-----5-------5-------5-------3-------3-------3-------4-------4---------
D-----------------------------------------------------------------------
A-3---------------------------------------------------------------------
E---------------------------------6---------------3---------------------


  Cm                              Gm7
e-----------------3-------------------------------6---------------------
B---------4---------------4---------------3---------------3-------------
G-----5-------5-------5-------5-------3-------3-------3-------3---------
D-----------------------------------------------------------------------
A-3---------------------------------------------------------------------
E---------------------------------3-------------------------------------

 
  D7                              Gm             
e-----------------5-------------------------------3---------------------
B---------3---------------3---------------3---------------3-------------
G-----5-------5-------5-------5-------3-------3-------3-------3---------
D-----------------------------------------------------------------------
A-5-------------------------------5-------------------------------------
E-----------------------------------------------------------------------


  Cm                              Gm7
e-----------------3-------------------------------6---------------------
B---------4---------------4---------------3---------------3-------------
G-----5-------5-------5-------5-------3-------3-------3-------3---------
D-----------------------------------------------------------------------
A-3---------------------------------------------------------------------
E---------------------------------3-------------------------------------


  D7                              Gm
e-----------------5-------------------------------3---------------------
B---------3---------------3---------------3---------------3-------------
G-----5-------5-------5-------5-------3-------3-------3-------3---------
D-----------------------------------------------------------------------
A-5-------------------------------5-------------------------------------
E-----------------------------------------------------------------------


  Cm              D7              Gm
e-3---------------5---------------3-------------------------------------
B-4---------------3---------------3-------------------------------------
G-5---------------5---------------3-------------------------------------
D-5---------------4---------------5-------------------------------------
A-3---------------5---------------5-------------------------------------
E---------------------------------3-------------------------------------


  Cm              F7              Bb             G7
e-3---------------5---------------6--------------3----------------------
B-4---------------4---------------3--------------3----------------------
G-5---------------5---------------3--------------4----------------------
D-5---------------3---------------3--------------3----------------------
A-3---------------3---------------5--------------5----------------------
E---------------------------------6--------------3----------------------


  Cm                              Gm             Gm7
e-3-------------------------------3--------------6----------------------
B-4-------------------------------3--------------3----------------------
G-5-------------------------------3--------------3----------------------
D-5-------------------------------5--------------5----------------------
A-3-------------------------------5--------------5----------------------
E---------------------------------3--------------3----------------------


  D7                              Gm             G7
e-5-------------------------------3--------------3----------------------
B-7-------------------------------3--------------3----------------------
G-5-------------------------------3--------------4----------------------
D-7-------------------------------5--------------3----------------------
A-5-------------------------------5--------------5----------------------
E---------------------------------3--------------3----------------------


  Cm                              Gm             Gm7
e-3-------------------------------3--------------6----------------------
B-4-------------------------------3--------------3----------------------
G-5-------------------------------3--------------3----------------------
D-5-------------------------------5--------------5----------------------
A-3-------------------------------5--------------5----------------------
E---------------------------------3--------------3----------------------


  D7                              Gm            
e-5-------------------------------3-------------------------------------
B-7-------------------------------3-------------------------------------
G-5-------------------------------3-------------------------------------
D-7-------------------------------5-------------------------------------
A-5-------------------------------5-------------------------------------
E---------------------------------3-------------------------------------


Strumming here: down up down up down(x) up down up


Part 6 = Part 2

Part 7 = Part 3


Part 8 - THE END

e-----------------------------------------------------------------------
B-------------------------------6-----4-----3---10-----8-----4h6--------
G-----------------------------------------5-----------------------------
D-----------------------------------------------------------------------
A-------------------------------3---------------3-----------------------
E-----------------------------------------------------------------------


e-----------------------------------------------------------------------
B-4-----3-------4-----3-----3h4-3-------------3-------------------------
G-----------3-------------3-----5-----5-------5-----5---5.--------------
D-----5-------------5---------------4-----4-------4---------------------
A---------------5---------------5---------------------------------------
E-3---------------------------------------------------------------------


e-----------------------------------------------------------------------
B---------------3-----4-----6~--6-----4-----3---10-----8-----4h6--------
G-5-----3---5-----------------------------5-----------------------------
D-----5-------------5---------------5-----------------------------------
A---------------5---------------3---------------3-----------------------
E-3---------------------------------------------------------------------


e-----------------------------------------------------------------------
B-4-----3-------4-----3-----3h4-3-------------3-------------------------
G-----------3-------------3-----5-----5-------5-----5-------------------
D-----5-------------5---------------4-----4-------4-----4---------------
A---------------5---------------5---------------------------------------
E-3---------------------------------------------------------------------


e-----------------------------------------------------------------------
B--------3-------3-------3-------3-------3-------3-------3-------3------
G------3-------3-------3-------3-------5-------5-------5-------5--------
D----7-------7-------7-------7-------7-------7-------7-------7----------
A-10-------8-------7-------6-------5------------------------------------
E------------------------------------------8-------6-------5------------


e-----------------------------------------------------3-------5---------
B-------4-------3-------4-------------4-------3----------------3--------
G-------------3-------3---------------------3-----3-------------3-------
D-----5-----5-------5-------5-------5-----5----------------------5------
A---5-----------------------------5-------------------------------5-----
E-3-----------------------------3----------------------------------3----