20131220

FARMVILLE THEME GUITAR TAB (COVER BY ALVIN DELEON)

Alvin De Leon plays a nice fingerstyle guitar cover of the Farmville theme.
See the TAB under the video. Capo on the 1st and '-1-' means the open string.
Original melody by Steve Kirk.



FARMVILLE THEME TAB

PDF >>

e-------------3/5-----8.------------------------5-3---------------------
B-------6.------------------10------------------------6-----------------
G-------5.--------------------------10----------------------------------
D-----7--------------------------10------10-----------------------------
A-----------------------------------------------------------------------
E-1-----------3/5-----------10--------------1-----5---------------------


e-3---------------------------------------------------------------------
B-----3-6.--6-10--------------------------------------------------------
G--------------------10.--10-------10-----8-----5---6-------------------
D--------------------------------7------1-7-----------------------------
A-----------------------------------------8-----------------------------
E-3-----------8--------------1------------------------------------------


e-----------------------------------------------------------------------
B-----6-----8/9\8---6-------------8.----7-------------------------------
G-7-----7-------------6---5-------5.----5-------------------------------
D---------------------------------7.----7-------------------------------
A-1-------------1-----------------------5-------------------------------
E---------------------------1-------------------------------------------



e-------------4/5-----1-4-----------------12-10-------------------------
B-------3-6.------------------------1-5.----------13--------------------
G-3h4---------------------------1---------------------------------------
D-----------------------------2-----------------------------------------
A---------------5---------3---------------------------------------------
E---3-------------------------------------------------------------------


e-12/13-----5-8-------------------5.----6-------------------------------
B---------------------8.----------6.----6-------------------------------
G---------------------6.----------5.----5---5h6-------------------------
D---------------------8.--------7---------------------------------------
A---------------4-----7.----5-------------------------------------------
E-1-------------------------------------1-------------------------------


e---------------------------------------------10---8--------------------
B-3-----6-3.--8h9p8-----------------------------------------------------
G-4-------------------10------10~----10-9---8-8-------------------------
D------------------------12.------------------7-------------------------
A----------------------------------------------------3---4--------------
E---3---------8------------------1--------------------------------------


e-----5-3.----9---6-------5---8-10.-------------------------------------
B-----3-------------8---9--------------8-----7.-------------------------
G-----3--------------------------------5--------------------------------
D--------------------------------------7--------------------------------
A-5-----------1------------------------5--------------------------------
E-------------------------5-----1---------------------------------------


e-3---5-3.--------------------------------------------------------------
B-3-----------3---------------------------------------------------------
G-4-----------3---------------------------------------------------------
D-------------2---------------------------------------------------------
A-------------3---------------------------------------------------------
E-3---------------------------------------------------------------------

 ... and the whole thing again ... then this is the end

e-----------------------------------------------------------------------
B-1--------------10---\-------------------------------------------------
G-3--------------10---\-------------------------------------------------
D-2--------------10---\-------------------------------------------------
A-3--------------8----\-------------------------------------------------
E-----------------------------------------------------------------------