20131201

GUANTANAMERA TAB (FINGERSTYLE GUITAR COVER BY PHILIPPE METGE )

Guantanamera fingerstyle guitar cover played softly by Philippe Metge.
He uses Dropped D tuning (that is DADGBE)
TAB below.


GUANTANAMERA TAB

GP5 + GP6 + PDF >>

Part 1

e-----------------------------------------------------------------------
B-----------------------------------------------------------------------
G-----------------------------------------------------------------------
D-----------------------------------------------------------------------
A-----0---2-------------------------------------------------------------
D-5---------------------------------------------------------------------


e-----------------------------------------------------------------------
B---------1-----------1---x---0-----------x---0-------------------------
G---------0---0-------2---x---0-----------x---0-------------------------
D-----2-------0-------3---x---0-----------x---0-------------------------
A-3-------------------------------------------------------0---2---------
D-----------------0---------------5---------------5---5-----------------


e-----------------------------------------------------------------------
B---------1-----------1---x---0-----------x---0-----------0.------------
G---------0---0-------2---x---0-----------x---0-----------0.------------
D-----2-------0-------3---x---0-----------x---0-------0-----------------
A-3---------------------------------------------------------------------
D-----------------0---------------5---------------5---------------------



Part 2

e---------------------------------------------------------5.------------
B-10-------10.------10---10.--x---0-------x---0-------6---6.------------
G--9--------9.------10---10.--x---0-------x---0-------------------------
D-10-------10.------10---10.--x---0-------x---0-------------------------
A-----------------------------------------------------------------------
D-10----------------0---------x-------5-----------5---------------------


e-3-------3-------3---3.------------------------------------------------
B-5-----------5---6---6.------0-----------x---6-----------6.------------
G-5---------------------------0-----------x---4-----------4.------------
D-----------------------------0-----------x---0-------0-----------------
A-3---3-----------------------------------------------------------------
D-----------------0---------------5---------------5---------------------



DOWNLOAD THE COMPLETE TAB HERE





  • click 'Buy Now' and send $6  (or 'Add to Cart' if you want to buy more tabs)
  • add your e-mail address
  • you will get a confirmation e-mail with your download links (in a few seconds)
  • download the full Guitar Pro 6 tab + GP5 + PDF
  • then start to learn the full song - that's all ...

IF YOU DIDN'T GET YOUR DOWNLOAD LINK, PLEASE CONTACT US HERE >>

SEND YOUR GUITAR TAB REQUEST HERE >>
MORE ON GUITAR TABS A-Z >>

Guitar Pro: a complete workshop for guitarists at an affordable price