20131219

HAZEL O'CONNOR WILL YOU SAX SOLO TRANSCRIBED TO GUITAR TAB

A saxophone solo transcribed to lead guitar. The song is Hazel O'Connor - Will You.
Thank you Dummyten for the cool cover.
TAB under the video.



WILL YOU SAX SOLO TAB

PDF >>

e-----------------------------------------------------------------------
B-///15~------------/17---\15-------------------------------------------
G-------------------------------14-14~----------------------------------
D-----------------------------------------------------------------------
A-----------------------------------------------------------------------
E-----------------------------------------------------------------------


e-----------------------------------------------------------------------
B-13-13~----------------------------------------------------------------
G-------------------12p10-12~-------------------------------------------
D-----------------------------------------------------------------------
A-----------------------------------------------------------------------
E-----------------------------------------------------------------------


e-///15~------------13-------12---h13p12\10--12-------------------------
B-----------------------------------------------10--13------------------
G-----------------------------------------------------------------------
D-----------------------------------------------------------------------
A-----------------------------------------------------------------------
E-----------------------------------------------------------------------



e---------------------------------10-p-9------9---10--------------------
B-10\8-10~---------------------10----------10---------------------------
G-----------------------------------------------------------------------
D-----------------------------------------------------------------------
A-----------------------------------------------------------------------
E-----------------------------------------------------------------------


e-///17~------17~-------15---------13h15p13\12h13p12\10--12-------------
B-----------------------------------------------------------10--13------
G-----------------------------------------------------------------------
D-----------------------------------------------------------------------
A-----------------------------------------------------------------------
E-----------------------------------------------------------------------


e-----------13---12---13p12-13---12---13-/-17~-----\15-15.---13.--------
B-10\8-10---------------------------------------------------------------
G-----------------------------------------------------------------------
D-----------------------------------------------------------------------
A-----------------------------------------------------------------------
E-----------------------------------------------------------------------


e-12-h-13-p-12------10--------------------------------------------------
B--------------13--------10---13-----10\8-10~---------------------------
G-----------------------------------------------------------------------
D-----------------------------------------------------------------------
A-----------------------------------------------------------------------
E-----------------------------------------------------------------------


e-13--12--13--12--10~---------10h12p10\9h10p9---------------------------
B---------------------------------------------11--10~-------------------
G-----------------------------------------------------------------------
D-----------------------------------------------------------------------
A-----------------------------------------------------------------------
E-----------------------------------------------------------------------


e-----------------------------------------------------------------------
B-10~---------13---10---8-----------------------------------------------
G-------------------------9~--------------------------------------------
D-----------------------------------------------------------------------
A-----------------------------------------------------------------------
E-----------------------------------------------------------------------


e---------------------------------10------12-13~-------------15/17\15~--
B----------------------------10-----------------------------------------
G-----------------------12----------------------------------------------
D------------------12---------------------------------------------------
A-10/12~----------------------------------------------------------------
E-----------------------------------------------------------------------


e-13-12-----13-12-----12h13p12\10-10~----------12-13p12-10~-------------
B---------------------------------------------------------------10/13~--
G-----------------------------------------------------------------------
D-----------------------------------------------------------------------
A-----------------------------------------------------------------------
E-----------------------------------------------------------------------


e-----------------------------------------------------------------------
B-----------------------------------------------------------------------
G-14p13p12-14~-------14p13p12-14~~~~~~------------14-\\\----------------
D-----------------------------------------------------------------------
A-----------------------------------------------------------------------
E-----------------------------------------------------------------------


e----------------/10-10---\------/13-13---\----/15-15---\---------------
B-/13-13---\------------------------------------------------------------
G-----------------------------------------------------------------------
D-----------------------------------------------------------------------
A-----------------------------------------------------------------------
E-----------------------------------------------------------------------


e-/17-17---17---17---17---17---17---15'---------------------------------
B-----------------------------------------------------------------------
G-------------------------------------------14---14---14---14---14~-----
D-----------------------------------------------------------------------
A-----------------------------------------------------------------------
E-----------------------------------------------------------------------


e-----------------------------------------------------------------------
B-13--------------------------------------------------------------------
G------14-12~--------------------10---h12p10----------------------------
D--------------------------------------------12~------------------------
A-----------------------------------------------------------------------
E-----------------------------------------------------------------------


e------------------------------10-------------------------------10------
B------------------10---13~-------10~-------------13-13~----------------
G-------------12--------------------------------------------------------
D-10----10-12-----------------------------------------------------------
A----12-----------------------------------------------------------------
E-----------------------------------------------------------------------


e------------------12------------------10-------------------------------
B-10~-------------------10----------------------------------------------
G--------------------------12~--------------12-10~-------10\------------
D-----------------------------------------------------------------------
A-----------------------------------------------------------------------
E-----------------------------------------------------------------------


e-13---12---13p12-13---12---13p12-13p12-13p12-13p12h13p12h13p12---------
B-----------------------------------------------------------------------
G-----------------------------------------------------------------------
D-----------------------------------------------------------------------
A-----------------------------------------------------------------------
E-----------------------------------------------------------------------


e-13p12h13p12h13p12-----13---12\10-12---10\9-10~--------10\-------------
B-----------------------------------------------------------------------
G-----------------------------------------------------------------------
D-----------------------------------------------------------------------
A-----------------------------------------------------------------------
E-----------------------------------------------------------------------


e-10h12h13p12p10-13p12p10-10--------------------------------------------
B--------------------------------------11h13p11p10h13p10h11h13p11p10~---
G-----------------------------------------------------------------------
D-----------------------------------------------------------------------
A-----------------------------------------------------------------------
E-----------------------------------------------------------------------


e---------------------10----------13/15---------/17-\----/15-13-12------
B-10-------------10-----------------------------------------------------
G-----------12----------------------------------------------------------
D------12---------------------------------------------------------------
A-----------------------------------------------------------------------
E-----------------------------------------------------------------------


e-13-12-----13-12-----13-12-\-10---9--------9---------------------------
B--------------------------------------10-------10----------------------
G----------------------------------------------------12---9-------------
D-------------------------------------------------------------11---12---
A-----------------------------------------------------------------------
E-----------------------------------------------------------------------


e-----------------------------------------------------------------------
B-----------------------------------------------------------------------
G-----------------------------------------------------------------------
D-11--------------------------------------------------------------------
A------12~----------------------\\\-------------------------------------
E-----------------------------------------------------------------------