20131213

JIM CROCE I'LL HAVE TO SAY I LOVE YOU IN A SONG TAB

Nice cover of Jim Croce - I'll have to say I love you in a song played by 'stratofender2003'
TAB under the video.



JIM CROCE I'LL HAVE TO SAY I LOVE YOU IN A SONG TAB

PDF >>

Intro

  Amaj7           C#m7            Bm7             Dm7     E
e-----0-----0-------------4---------------2---------------0-------------
B-----2-----2---------5-----5---------3-----3-----------6-----0---------
G---1-----1-----1-----4---------4---2-----------2-----5-----1---1-------
D-------------------6---6---------------4-----------7-------------------
A-0-----------0---4-----------4---2-----------2---5---------------------
E-------0-------------------------------------------------0-------------


e----------------------9---------------------7----------------10---9----
B-----7h9-7---0----------9-------12-10-----------10---------10-----9-9--
G---9-------9---11---9------11-9-----------7---7------7---0------------9
D----------------------------------------7--------------0---------------
A-0----------------------11------------------9--------------------------
E-------0----------9-------------------7------------7------------0------


Verse

e----------------------9---------------------7----------0---------------
B-----7h9-7---0----------9-------12-10-----------10---------------------
G---9-------9---11---9------11-9-----------7---7------0-----1---2---4---
D----------------------------------------7----------------2---2---0---x-
A-0----------------------11------------------9--------------------------
E-------0----------9-------------------7------------7---0---0---2---4---



e----------------------9---------------------7----------0---------------
B-----7h9-7---0----------9-------12-10-----------10---------------------
G---9-------9---11---9------11-9-----------7---7------0-----1---2.--4.--
D----------------------------------------7----------------2-------------
A-0----------------------11------------------9--------------------------
E-------0----------9-------------------7------------7---0---0---2.--4.--


Chorus

  D               G#7             C#7             F#m     D
e-2---------2-----4---------4---------4-----4-----2---5---2-------------
B-3---3-----3-----4---4-----4-----6---6-----6-------------3---3---------
G---2-----2-----0---5-----5-----5---4-----4-----0---2---0---2---2-------
D-0-----0-------------------------------------------------0-------------
A-------------0---------6---------4-----------4-------------------------
E-----------------4-----------4---------4---------2---------------------


  Amaj7           E               D             E
e-----0-----0-----0-------2/4-----------4---5---7---9---------0---------
B-----2-----2---------0-------0-------3-5---5---9-----9---7h9-----------
G---1-----1-----1---1---1-------0---2---4-----4---------9---9-----------
D---------------------------------0-------------------------------------
A-0-----------0-----------------------------------0---------------------
E-------0---------0---------------------------------------0-----9-------