20130330

CARLOS SANTANA MOONFLOWER TAB AND LESSON(FLOR D'LUNA)

Moonflower (Flor d'Luna) is a classic song by Carlos Santana from 1977.
There are many backing tracks available to play along.  
TAB helps below.



CARLOS SANTANA MOONFLOWER TAB (FLOR D'LUNA)                  Download PDF

Main Riff

e-----------------------------------------------------------------------
B------------15~------13----------------15--13--------------------------
G------14.---------------15-14~-----------------15.--14----(15)(14)-12~-
D-12--------------------------------------------------------------------
A-----------------------------------------------------------------------
E-----------------------------------------------------------------------


e-----------------------------------------------------------------------
B------------------------------------------------13~------------15~-----
G------------12------------14~--------14---15.------------15-14---------
D-14---15.-----------15-14----------------------------------------------
A-----------------------------------------------------------------------
E-----------------------------------------------------------------------


e-----------------------------------------------------------------------
B-----------------------------------------------------------------------
G-12--14--14h15--14.--12--12h14-------12--12h14.--14p12-------12--------
D---------------------------------15----------------------15------------
A-----------------------------------------------------------------------
E-----------------------------------------------------------------------


20130327

GUNS N ROSES DON'T CRY SOLO TAB AND COVER


Richard Borg plays a good guitar cover of Guns N Roses Don't cry solo.
He uses half step down tuning.
See the TAB under the video.



GUNS N ROSES DON'T CRY SOLO TAB                                               Download PDF


eb----------------------------------------------------------------------
Bb----------------------------------------------------------8-----------
Gb------------------7(9)------(7)p5-7~~----7(9)(7)p5-7(9)---------------
Db-7~~~~----------------------------------------------------------------
Ab----------------------------------------------------------------------
Eb----------------------------------------------------------------------


eb----------------------------------------------------------------------
Bb------------------8-8-------------------------------------------------
Gb-7(9)(7)p5-7(9)-------(9)(7)-5'---------------------------------------
Db----------------------------------7~---5~-----------------------------
Ab--------------------------------------------5(6)(5)-3~----------------
Eb----------------------------------------------------------------------


eb----------------------------------------------------------------------
Bb---------------------------------------15(17)---13'-------------------
Gb-7/9-9/10------------------------12h14----------------14~-------------
Db---------------------10h12-12/14--------------------------------------
Ab-5/7-7/8--8h10-10/12--------------------------------------------------
Eb----------------------------------------------------------------------


MY HEART WILL GO ON TAB (GUITAR SOLO COVER BY MUMI KHUDAYER)

Great instrumental guitar cover of My heart will go on played by Mumi Khudayer.
It looks like you'll need extremely soft strings (about 9 or 8) or strong fingers ...
Using the tremolo bar makes this solo much more exciting.
TAB below.


MY HEART WILL GO ON TAB                                                                 Download PDF

Intro

e-----------------------------------------------------------------------
H-5--7--7/9~--------10p9p7--5--7---/12~---------------------------------
G-----------------------------------------------------------------------
D-----------------------------------------------------------------------
A-----------------------------------------------------------------------
E-----------------------------------------------------------------------




e-----------------------------------------------------------------------
H-10--12--12(14)------12~-----\--7~-------------------------------------
G-----------------------------------------------------------------------
D-----------------------------------------------------------------------
A-----------------------------------------------------------------------
E-----------------------------------------------------------------------


20130326

BOB MARLEY CONCRETE JUNGLE SOLO TAB AND LESSON

Kiko Peres shows us how to play the guitar solo of Concrete Jungle by Bob Marley.
The solo is played along with the original record, then once again but a bit slower.
TAB helps below.



BOB MARLEY CONCRETE JUNGLE SOLO TAB                                 Download PDF


e-----------------------------------------------------------------------
B-----8---------------------------7h8p7---7---7h8p7---------------------
G-----------9------6h7-7/9~-------------9---9-------9---7~--------------
D-7h9-------------------------------------------------------------------
A-----------------------------------------------------------------------
E-----------------------------------------------------------------------


e-----------------------------------------------------------------------
B-----------------------------------------------------------------------
G-7/9-9/11-11~-----11h12p11h12p11h12-12/14~-----14(16)~~~---------------
D-----------------------------------------------------------------------
A-----------------------------------------------------------------------
E-----------------------------------------------------------------------


e-----------------------------------------------------------------------
B-----------------------------------------------------------------------
G-14(16)(14)---14(16)~~~~------14(16)---(14)p12----12---12~~------------
D-----------------------------------------------14----------------------
A-----------------------------------------------------------------------
E-----------------------------------------------------------------------


20130321

QUEEN WE ARE THE CHAMPIONS TAB - INSTRUMENTAL


Pablo Tru plays an instrumental guitar cover of We are the Champions by Queen.
See the TAB under the video.



QUEEN WE ARE THE CHAMPIONS TAB                                                Download PDF


e-----------------------------------------------------------------------
B-----------------------------------------------------------------------
G------3---5.--5~--------------3---5.--5~-------------3---5.--5~--------
D-/5----------------------/5---------------------/5---------------------
A-----------------------------------------------------------------------
E-----------------------------------------------------------------------


e-----------------------------------------------------------------------
B-------4---3-----------------------------------------------------------
G-3-0-----------3---3/5~------------------------------------------------
D-----------------------------------------------------------------------
A-----------------------------------------------------------------------
E-----------------------------------------------------------------------


e-----------------------------------------------------------------------
B-----3---3/4---4~----------------3---4---4~----------------------------
G-3---------------------------3-----------------------------------------
D-----------------------------------------------------------------------
A-----------------------------------------------------------------------
E-----------------------------------------------------------------------


BB KING THE THRILL IS GONE SOLO TAB - MARTY SCWARTZ IMROVISATION

Marty Schwartz teaches us The thrill is gone by BB King. The reason why we've put this video here is the little improvisation solo at the beginning. He actually teaches the chords and the rhythm in the lesson. TAB of the improvisation solo below.


BB KING THE THRILL IS GONE TAB - IMPROVISATION BY MARTY SCHWARTZ

e-10'---7~--------------7'----------------------------------------------
B-------------------------------10--------------------------------------
G---------------9(11)--------------9(11)-7-9----------------------------
D--------------------------------------------9-9~-----------------------
A-----------------------------------------------------------------------
E-----------------------------------------------------------------------


e-------------------7---------------------------------------------------
B-----------------7---10p7----------------------------------------------
G-------7-9(11)------------9(11)-9-7---7-9h10p9p7---7-------------------
D---7h9------------------------------9------------9---9p7---------------
A-9-------------------------------------------------------9\7p5-7~------
E-----------------------------------------------------------------------


POKEMEON GUITAR MEDLEY TAB

HEHEEY! jkdk11 plays here the POKEMON GUITAR MEDLEY with a Gibson LesPaul. Do you remember these songs? If you watched the episodes regularly you'll recognise them. A lot of guitarists were claiming for tabs so here you are.


POKEMON GUITAR MEDLEY TAB

As a lot of us don't understand japanese so it is probably hard to find the tab in his blog. But the TAB is there!  Pokemon Medley tab "as recorded by jkdk11" so exactly for this video. Here is the link: POKEMON GUITAR MEDLEY TAB

Have fun ;) 



20130318

IZ SOMEWHERE OVER THE RAINBOW TAB AND LESSON

Guys it is possible to play Somewhere over the Rainbow by IZ on guitar so that it sounds like you were playing it with an ukulele. Use the three higher strings (G B E ) on your guitar for playing the chords. A ukulele is actually the 5th fret of the 4 higher strings of a guitar. In the intro part there are some tricky chords. TAB helps below.



ISRAEL "IZ" KAMAKAWIWO'OLE SOMEWHERE OVER THE RAINBOW TAB

Intro

      C               Em              Am              F

e-x-x-8-8-x-x-8-8-x-x-7-7-x-x-7-7-x-x-5-5-x-x-5-5-x-x-5-5-x-x-5-5-------
B-x-x-8-8-x-x-8-8-x-x-8-8-x-x-8-8-x-x-5-5-x-x-5-5-x-x-6-6-x-x-6-6-------
G-x-x-9-9-x-x-9-9-x-x-9-9-x-x-9-9-x-x-5-5-x-x-5-5-x-x-5-5-x-x-5-5-------
D-----------------------------------------------------------------------
A-----------------------------------------------------------------------
E-----------------------------------------------------------------------

      C               Em              Am              F add9

e-x-x-8-8-x-x-8-8-x-x-7-7-x-x-7-7-x-x-5-5-x-x-5-5-x-x-5-5-x-x-5-5-------
B-x-x-8-8-x-x-8-8-x-x-8-8-x-x-8-8-x-x-5-5-x-x-5-5-x-x-8-8-x-x-8-8-------
G-x-x-9-9-x-x-9-9-x-x-9-9-x-x-9-9-x-x-5-5-x-x-5-5-x-x-5-5-x-x-5-5-------
D-----------------------------------------------------------------------
A-----------------------------------------------------------------------
E-----------------------------------------------------------------------

JASON MRAZ I'M YOURS TAB AND LESSON



In this video you can see how to play all the guitar parts in I'm yours by Jason Mraz.
See the TAB under the video.



JASON MRAZ I'M YOURS TAB                                                                 Download PDF


Intro
e-7/9.---7---------7/9.---6---------------------------------------------
B-7/9.---7---------7/9.---7---------7/9.--------------------------------
G-----------------------------------6/8.---8---------8.---8h9-----------
D------------------------------------------9---------9.---9-------------
A-----------------------------------------------------------------------
E-----------------------------------------------------------------------






Verse 1 & chorus (with high chords) 

      B                           F#
e-----7-------7-------7-------7-----------------------------------------
B-----7-x-x-x-7-x-x-x-7-x-x-x-7-x-----11-x-x-x-11-x-x-x-11-x-x-x-11-x---
G-----8-x-x-x-8-x-x-x-8-x-x-x-8-x-----11-x-x-x-11-x-x-x-11-x-x-x-11-x---
D-----9-x-x-x-9-x-x-x-9-x-x-x-9-x-----11-x-x-x-11-x-x-x-11-x-x-x-11-x---
A-----9-x-x-x-9-x-x-x-9-x-x-x-9-x-9----9--------9--------9--------9-----
E-7---7-------7-------7-------7-----------------------------------------


20130316

ERIC CLAPTON I SHOT THE SHERIFF TAB - SOLOS

Eric Clapton playing I shot the sheriff live at Crossroads Guitar Festival in 2010.
He is so powerful and he still sings better than everyone, so a lot of musicians should learn from him, not to mention his guitar playing. See the TAB of the magic intro and the cool final solo he plays with that blue Fender Stratocaster below.



ERIC CLAPTON I SHOT THE SHERIFF SOLO TAB                             Download PDF
(LIVE AT CROSSROADS FESTIVAL 2010)

Intro solo

e-----------------------------------------------------------------------
B-----------------------------------------------------------------------
G----------3---5-3h5p3---3---5-3h5p3---3---5.---------------------------
D-x---5.---------------5-------------5----------------------------------
A-----------------------------------------------------------------------
E-----------------------------------------------------------------------


e-----------------------------------------------------------------------
B-13(15)------13-11-13-11-------------------------11--------------------
G-------------------------12-12~---10.------10-12----12~---10.----------
D-----------------------------------------------------------------------
A-----------------------------------------------------------------------
E-----------------------------------------------------------------------


e-----------------------------------------------------------------------
B-------11----13----11'-----------------------11----13----11'-----------
G-10-12----12----12---------12.---------10-12----12----12--------12.----
D-------------------------------------12--------------------------------
A-----------------------------------------------------------------------
E-----------------------------------------------------------------------


20130315

THE KILLERS MR BRIGHTSIDE TAB AND LESSON

Here is a short guitar lesson how to play the intro riff of The Killers Mr Brightside.
Its a very tricky one. The Killers play this song in half step down tuning.
Thanks "ThEnExTsYn" for sharing this! TAB helps below.



THE KILLERS MR BRIGHTSIDE TAB                                                     Download PDF


eb-----------------0------------------------------0---------------------
Bb--------------------17-----------------------------17-----------------
Gb---------19-------------19--------------19-------------19-------------
Db-----16------16-------------0-------16------16-------------0----------
Ab-17-----------------------------16------------------------------------
Eb----------------------------------------------------------------------


eb-----------------0------------------------------0---------------------
Bb--------------------17-----------------------------17-----------------
Gb---------19-------------19--------------19-------------19-------------
Db-----16------16-------------16------16------16-------------0----------
Ab----------------------------------------------------------------------
Eb-15-----------------------------15------------------------------------


eb-----------------0------------------------------0---------------------
Bb--------------------17-----------------------------17-----------------
Gb---------19-------------19--------------19-------------19-------------
Db-----16------16-------------0-------16------16-------------0----------
Ab-17-----------------------------16------------------------------------
Eb----------------------------------------------------------------------


TRACY CHAPMAN GIVE ME ONE REASON TAB AND LESSON


Short guitar lesson how to play the main riff  of Tracy Chapman Give me one reason.
Use your thumb to pick the bass notes and your other fingers for the higher strings. 
TAB helps below.



TRACY CHAPMAN GIVE ME ONE REASON TAB                                   Download PDF


e-----------------------------------------------------------------------
H-------2.-------2-2.---------4.-------6-6.-----------------------------
G-------3.-------3-3.---------4.-------6-6.-----------------------------
D-------4.-------4-4.---------4.-------6-6.-----------------------------
A---------------------0-2--------4--------------------------------------
E-2--------2--------------------------------0---------------------------


e-----------------------------------------------------------------------
H-------2.-------2-2.---------2.-------2-2.-----------------------------
G-------3.-------3-3.---------3.-------3-3.-----------------------------
D-------4.-------4-4.---------4.-------4-4.-----------------------------
A-------------------------------------------0---------------------------
E-2--------2----------0-2--------2--------------------------------------


e-----------------------------------------------------------------------
H-------4.-------4-4.---------4.-------6-6.-----------------------------
G-------4.-------4-4.---------4.-------6-6.-----------------------------
D-------4.-------4-4.---------4.-------6-6.-----------------------------
A-2--------2----------0-2--------4--------------------------------------
E-------------------------------------------0---------------------------


DRAGON BALL Z THEME SONG TAB

Chakalaka025 plays here a crazy guitar cover of the DRAGON BALL Z Theme song. Note that his B string gets mistuned by 1:06.
TAB below.



DRAGON BALL Z THEME SONG TAB                                                    Download PDF

  T      T      T      T      T      T      T      T
e-----------------------------------------------------------------------
H-12p7p5-12p7p5-12p7p5-12p7p5-12p7p5-12p7p5-12p7p5-12p7p5---------------
G-----------------------------------------------------------------------
D-----------------------------------------------------------------------
A-----------------------------------------------------------------------
E-----------------------------------------------------------------------


e-----------------------------------------------------------------------
H-----10---9-----10---9-------------------------------------------------
G-----9----9-9---9----9-------9---9---\7-7.---7-------------------------
D-9-9-9--9-9-9-9-9--9-9-9-9-9-9-9-9---\7-7.---7-------------------------
A-7-7----7-----7----7---7-7-7-7-7-7---\5-5.---5-------------------------
E-----------------------------------------------------------------------
  x x    x     x    x   x x x   x

e-----------------------------------------------------------------------
H-----------------------------------------------------------------------
G---7---7---\5-5.---5---------------------------------------------------
D-7-7-7-7---\5-5.---5---------------------------------------------------
A-5-5-5-5---\3-3.---3---------------------------------------------------
E-----------------------------------------------------------------------
  x   x         


20130311

DEEP PURPLE SMOKE ON THE WATER TAB - SOLO


Perfect cover of Ritchie Blackmore's Smoke on the water solo played by hutgreen.
Nice Stratocaster, great sound, perfect playing !!!
TAB helps below.



DEEP PURPLE SMOKE ON THE WATER SOLO TAB                          Download PDF


e-----------------------------------------------------------------------
H-----------------------(15)(13)-11---------11'-------------------------
G---------10---12~------------------12~---------------------------------
D-10/12-----------------------------------------------------------------
A-----------------------------------------------------------------------
E-----------------------------------------------------------------------


e-----------------------------------------------------------------------
H----------------------11.---11(13)------11.---10.---8.---10.-----------
G----------10.---12.----------------------------------------------------
D-10/12.----------------------------------------------------------------
A-----------------------------------------------------------------------
E-----------------------------------------------------------------------


e-----------------------------------------------------------------------
H-8h10p8\6.---8.---6.--------6.---------8.---------8~~------------------
G-----------------------8.--------10.--------10.------------------------
D-----------------------------------------------------------------------
A-----------------------------------------------------------------------
E-----------------------------------------------------------------------


20130310

QUEEN HAMMER TO FALL TAB - SOLO

Great cover of Hammer to fall solo by Queen. 
TAB helps below.



QUEEN HAMMER TO FALL TAB                                                             Download PDF


e-----------------------------------------------------------------------
B---------------------10---12(14)(12)p10-12---12(14)~~~-----------------
G-6~---7---7/9~~--------------------------------------------------------
D-----------------------------------------------------------------------
A-----------------------------------------------------------------------
E-----------------------------------------------------------------------


e-----------------------------------------------------------------------
B-17(19)~---17---15---14h15h17------------------------------------------
G--------------------------------14---16---16(18)(16)p14-16(18).-14~----
D-----------------------------------------------------------------------
A-----------------------------------------------------------------------
E-----------------------------------------------------------------------


20130303

MURIS VARAJIC SILENT INNER CRY TAB


Muris Varajic plays his song Silent Inner Cry with a cool green Telecaster.
He makes a good  mix of traditional Balkan elements with modern guitar sound.
See the TAB of the main parts of the song under the video.



MURIS VARAJIC SILENT INNER CRY TAB                                             Download PDF


e-----------------------------------------------------------------------
H-3---------------------------------------------------------------------
G-5---------------------------------------------------------------------
D-5---------------------------------------------------------------------
A-x---------------------------------------------------------------------
E-5---------------------------------------------------------------------


Part 1

e-----------------------------------------------------------------------
H-----------------------------------------------------------------------
G----7-----7~~-(8)(7)p5h7.----5/7-7-7-7-8p7-----------------------------
D-5-----5-----------------------------------10p8-10/12.--10h12p10~~\----
A-----------------------------------------------------------------------
E-----------------------------------------------------------------------


20130302

BOB MARLEY STIR IT UP TAB - SOLO


Bob Marley - Stir it up guitar solo cover for all the reggae fans.
The solo starts at 3:26 in the album version.
See the TAB below.



BOB MARLEY STIR IT UP SOLO TAB                                                   Download PDF


e-----------------12---------12\----------------------------------------
H------10h12/14--------------14\----------------------------------------
G-9h11---------------------------------------2'-------------------------
D---------------------------------------4.--------4.---2~---------------
A-----------------------------------------------------------------------
E-----------------------------------------------------------------------


e-----------------------------5------7----------------------------------
H--------5~-----------5-5h7---------------------------------------------
G-4/6-------------------------------------------------------------------
D-----------------------------------------------------------------------
A-----------------------------------------------------------------------
E-----------------------------------------------------------------------




e-5h7-5---5------5--------------5---------------------------------------
H-------7--------5h7.---5---5---5h7.---5---5----------------------------
G-------------------------6--------------6------------------------------
D-----------------------------------------------------------------------
A-----------------------------------------------------------------------
E-----------------------------------------------------------------------


20130301

BILL HALEY ROCK AROUND THE CLOCK TAB AND LESSON

Ric Tester's guitar lesson how to play Bill Haley - Rock around the clock.
He shows us clearly how to play the intro, the verse and the solo parts and also explains everything you should know about Rock and Roll. 
TAB helps below.  


BILL HALEY ROCK AROUND THE CLOCK TAB                                  Download PDF

Intro

e-5-5.--5.--------9--9.---9.-------12.------12.-------12-12.------------
H-5-5.--5.-------10-10.--10.-------12.------12.-------12-12.------------
G-6-6.--6.--------9--9.---9.-------13.------13.-------13-13.------------
D-7-7.--7.-------11-11.--11.-------14.------14.-------14-14.------------
A-----------------------------------------------------------------------
E-----------------------------------------------------------------------

Verse

e-5---5---x-5---x-5--\----5---5---x-5---x-5--\--------------------------
H-5---5---x-5---x-5--\----5---5---x-5---x-5--\--------------------------
G-6---6---x-6---x-6--\----6---6---x-6---x-6--\--------------------------
D-7---7---x-7---x-7--\----7---7---x-7---x-7--\--------------------------
A-----------------------------------------------------------------------
E-----------------------------------------------------------------------


CHUCK BERRY JOHNNY B GOODE TAB AND LESSON


MacHardCase teaches us how to play Johnny B. Goode by Chuck Berry.
TAB helps below.



CHUCK BERRY JOHNNY B GOODE TAB                                             Download PDF


Intro

e-------5/6-6-6--5/6-6-6--6-6-------------------------------------------
H-----6-5/6-6-6--5/6-6-6--6-6--9-8-6------------------------------------
G-6/7--------------------------------6h7----7-7-7--7-7-7--7-7-----------
D----------------------------------------8--8-8-8--8-8-8--8-8-----------
A-----------------------------------------------------------------------
E-----------------------------------------------------------------------


e-------------------------6-----6------6-----6--------------------------
H-----6-8-6---------------6-----6------6-----6--------------------------
G-6/7-7-7-7--5--3-----8'----8'-----8'----8'----8'-----------------------
D------------------5----------------------------------------------------
A-----------------------------------------------------------------------
E-----------------------------------------------------------------------


e-----6-----6----------6-----6-----6---------8-6------------------------
H-----6-----6----------6-----6-----6--9-8-6------9-8-6------------------
G-8'----8'----8'---8'----8'----8'----------------------6h7--------------
D-----------------------------------------------------------------------
A-----------------------------------------------------------------------
E-----------------------------------------------------------------------