20130331

EUROPE FINAL COUNTDOWN SOLO TAB AND COVER

Cool cover of Europe Final Countdown guitar solo played by Happyguitarplayer.
Now we can understand why is he "happyguitarplayer", everybody becomes happy after learning how to play this cool solo. TAB helps below.


EUROPE FINAL COUNTDOWN SOLO TAB                                      Printable tab here

e----10-14p10----10-14p10----10-14p10----10-14p10----10-14p10-----------
B-12----------12----------12----------12----------12--------------------
G-----------------------------------------------------------------------
D-----------------------------------------------------------------------
A-----------------------------------------------------------------------
E-----------------------------------------------------------------------


e----12-15p12----12-15p12----12-15p12----12-15p12----12-15p12-----------
B-14----------14----------14----------14----------14--------------------
G-----------------------------------------------------------------------
D-----------------------------------------------------------------------
A-----------------------------------------------------------------------
E-----------------------------------------------------------------------


e----14-17p14----14-17p14----14-17p14----14-17p14----14-17-\------------
B-15----------15----------15----------15----------15--------------------
G-----------------------------------------------------------------------
D-----------------------------------------------------------------------
A-----------------------------------------------------------------------
E-----------------------------------------------------------------------

DEKE DICKERSON & THE ECCO FONICS NIGHTMARE OF A WOMAN TAB

Who wants to learn a really good Rock and Roll song? Deke Dickerson and The Ecco fonics play here Nightmare of a woman live. Put a little overdrive, max volume and some delay on your guitar. All the solos - that is the intro, the first and the second solo - are tabbed and there is a slow down video below how to play them. Have fun!


DEKE DICKERSON & THE ECCO FONICS NIGHTMARE OF A WOMAN TAB


Intro solo (0:24)

        C                              

e-8-8-8----------8----------8----------8----------8--------8-8----------
B-8-8-8----------8----------8----------8----------8--------8-8----------
G-------10(12)-----10(12)-----10(12)-----10(12)-----10(12)--------------
D-----------------------------------------------------------------------
A-----------------------------------------------------------------------
E-----------------------------------------------------------------------

  F

e-11'---8-11-8-10-8.---11'---8----------8-------------------------------
B-10'---8-10-8-10-8.---10'---8-11(13)-----11(13)---8-10-----------------
G----------------------------------------------------10-----------------
D-----------------------------------------------------------------------
A-----------------------------------------------------------------------
E-----------------------------------------------------------------------

20130330

CARLOS SANTANA MOONFLOWER TAB AND LESSON(FLOR D'LUNA)

Moonflower (Flor d'Luna) is a classic song by Carlos Santana from 1977.
Use a LesPaul guitar (or any kind of humbucker provided guitar), switch the neck pick up, give just a little gain and some reverb to get the original sound. There are a lot of backing tracks available to play along. TAB helps below.


CARLOS SANTANA MOONFLOWER TAB (FLOR D'LUNA)             Printable tab here

Main Riff

e-----------------------------------------------------------------------
B------------15~------13----------------15--13--------------------------
G------14.---------------15-14~-----------------15.--14----(15)(14)-12~-
D-12--------------------------------------------------------------------
A-----------------------------------------------------------------------
E-----------------------------------------------------------------------


e-----------------------------------------------------------------------
B------------------------------------------------13~------------15~-----
G------------12------------14~--------14---15.------------15-14---------
D-14---15.-----------15-14----------------------------------------------
A-----------------------------------------------------------------------
E-----------------------------------------------------------------------


e-----------------------------------------------------------------------
B-----------------------------------------------------------------------
G-12--14--14h15--14.--12--12h14-------12--12h14.--14p12-------12--------
D---------------------------------15----------------------15------------
A-----------------------------------------------------------------------
E-----------------------------------------------------------------------

20130327

GUNS N ROSES DON'T CRY SOLO TAB AND COVER

Richard Borg plays a good guitar cover of Guns N Roses Don't cry solo. He uses a LesPaul guitar and heavy distortion as needed. If you want to learn this solo you'll need to practice a lot because there are some bends in this solo and they are really hard to do. Thanks Richard for the perfect cover. Lets just forgive him that one wrong note :P
Tune your guitar half note lower, TAB helps below.

 

GUNS N ROSES DON'T CRY SOLO TAB                                        Printable tab here

eb----------------------------------------------------------------------
Bb----------------------------------------------------------8-----------
Gb------------------7(9)------(7)p5-7~~----7(9)(7)p5-7(9)---------------
Db-7~~~~----------------------------------------------------------------
Ab----------------------------------------------------------------------
Eb----------------------------------------------------------------------


eb----------------------------------------------------------------------
Bb------------------8-8-------------------------------------------------
Gb-7(9)(7)p5-7(9)-------(9)(7)-5'---------------------------------------
Db----------------------------------7~---5~-----------------------------
Ab--------------------------------------------5(6)(5)-3~----------------
Eb----------------------------------------------------------------------


eb----------------------------------------------------------------------
Bb---------------------------------------15(17)---13'-------------------
Gb-7/9-9/10------------------------12h14----------------14~-------------
Db---------------------10h12-12/14--------------------------------------
Ab-5/7-7/8--8h10-10/12--------------------------------------------------
Eb----------------------------------------------------------------------

MY HEART WILL GO ON TAB - GUITAR SOLO

Mumi Khudayer, our friend from Denmark plays My heart will go on as a guitar solo. Thats the Titanic theme song. Looks like you'll need extremely soft strings (about 9 or 8) or strong fingers. Make this solo much more exciting by using the tremolo bar.
TAB below.



MY HEART WILL GO ON TAB                                                             Printable tab here

Intro

e-----------------------------------------------------------------------
H-5--7--7/9~--------10p9p7--5--7---/12~---------------------------------
G-----------------------------------------------------------------------
D-----------------------------------------------------------------------
A-----------------------------------------------------------------------
E-----------------------------------------------------------------------


e-----------------------------------------------------------------------
H-10--12--12(14)------12~-----\--7~-------------------------------------
G-----------------------------------------------------------------------
D-----------------------------------------------------------------------
A-----------------------------------------------------------------------
E-----------------------------------------------------------------------

20130326

BOB MARLEY CONCRETE JUNGLE SOLO TAB AND LESSON

We are so lucky because Kiko Peres teaches clearly how to play the guitar solo of Concrete Jungle by Bob Marley. The solo is played once along with the original record then he shows it again but slower so we just have to nail it.
TAB help below.

 

BOB MARLEY CONCRETE JUNGLE SOLO TAB                         Printable tabs here

e-----------------------------------------------------------------------
B-----8---------------------------7h8p7---7---7h8p7---------------------
G-----------9------6h7-7/9~-------------9---9-------9---7~--------------
D-7h9-------------------------------------------------------------------
A-----------------------------------------------------------------------
E-----------------------------------------------------------------------


e-----------------------------------------------------------------------
B-----------------------------------------------------------------------
G-7/9-9/11-11~-----11h12p11h12p11h12-12/14~-----14(16)~~~---------------
D-----------------------------------------------------------------------
A-----------------------------------------------------------------------
E-----------------------------------------------------------------------


e-----------------------------------------------------------------------
B-----------------------------------------------------------------------
G-14(16)(14)---14(16)~~~~------14(16)---(14)p12----12---12~~------------
D-----------------------------------------------14----------------------
A-----------------------------------------------------------------------
E-----------------------------------------------------------------------

20130321

QUEEN WE ARE THE CHAMPIONS TAB - INSTRUMENTAL

Pablo Tru plays here a guitar solo of Freddy's voice in We are the Champions.
We saw it 2 years ago and really loved it. Now everyone can use the TAB below to learn this version. So lets just check out Freddy's voice on guitar!


 

QUEEN WE ARE THE CHAMPIONS TAB                                         Printable tab here

e-----------------------------------------------------------------------
B-----------------------------------------------------------------------
G------3---5.--5~--------------3---5.--5~-------------3---5.--5~--------
D-/5----------------------/5---------------------/5---------------------
A-----------------------------------------------------------------------
E-----------------------------------------------------------------------


e-----------------------------------------------------------------------
B-------4---3-----------------------------------------------------------
G-3-0-----------3---3/5~------------------------------------------------
D-----------------------------------------------------------------------
A-----------------------------------------------------------------------
E-----------------------------------------------------------------------


e-----------------------------------------------------------------------
B-----3---3/4---4~----------------3---4---4~----------------------------
G-3---------------------------3-----------------------------------------
D-----------------------------------------------------------------------
A-----------------------------------------------------------------------
E-----------------------------------------------------------------------

MARK KNOPFLER MONEY FOR NOTHING TAB AND LESSON

Listen to every single word Mark Knopfler says here, he knows what he is talking about. 
Short interview about the secret of playing the main riff of Money for Nothing.
Gibson LesPaul, strong distortion and finger picking.....
There is a TAB below to help you out with the main riff.


DIRE STRAITS MONEY FOR NOTHING TAB - MAIN RIFF

e-----------------------------------------------------------------------
B-----------6-----------------------------------------------------------
G-7---7-5h7-------7-5---3---0------0---x-3p0---3---/5.---5---\3-x-0-<7>.
D-5---5-5-----5---5-5-5-3-3-0-0.---0---x-3p0-x-3---/5.---5---\3-x-0-<7>.
A-----------------------------------------------------------------------
E-----------------------------------------------------------------------


e-----------------------------------------------------------------------
B---------------8-------------------------------------------------------
G-7---7-5---5h7---7-7p5-3p0-0-<7>.---0---0-3p0--------------------------
D-5---5-5h8-5-------5---3p0-0-<7>.---0---0-----0-3---/5.---5---x-x------
A------------------------------------------------3---/5.---5---x-x------
E------------------------------------------------1---/3.---3------------
 


Are you satisfied with this guitar tab? Send your idea which song or guitar riff should be the next for tabbing by making a TAB REQUEST HERE
    
See more on GUITAR TABS A-Z 
 

BB KING THE THRILL IS GONE SOLO TAB - MARTY SCWARTZ IMROVISATION

Marty Schwartz teaches us The thrill is gone by BB King. The reason why we've put this video here is the little improvisation solo at the beginning. He actually teaches the chords and the rhythm in the lesson. TAB of the improvisation solo below.


BB KING THE THRILL IS GONE TAB - IMPROVISATION BY MARTY SCHWARTZ

e-10'---7~--------------7'----------------------------------------------
B-------------------------------10--------------------------------------
G---------------9(11)--------------9(11)-7-9----------------------------
D--------------------------------------------9-9~-----------------------
A-----------------------------------------------------------------------
E-----------------------------------------------------------------------


e-------------------7---------------------------------------------------
B-----------------7---10p7----------------------------------------------
G-------7-9(11)------------9(11)-9-7---7-9h10p9p7---7-------------------
D---7h9------------------------------9------------9---9p7---------------
A-9-------------------------------------------------------9\7p5-7~------
E-----------------------------------------------------------------------

POKEMEON GUITAR MEDLEY TAB

HEHEEY! jkdk11 plays here the POKEMON GUITAR MEDLEY with a Gibson LesPaul. Do you remember these songs? If you watched the episodes regularly you'll recognise them. A lot of guitarists were claiming for tabs so here you are.


POKEMON GUITAR MEDLEY TAB

As a lot of us don't understand japanese so it is probably hard to find the tab in his blog. But the TAB is there!  Pokemon Medley tab "as recorded by jkdk11" so exactly for this video. Here is the link: POKEMON GUITAR MEDLEY TAB

Have fun ;) 


See more on GUITAR TABS A-Z 

20130318

IZ SOMEWHERE OVER THE RAINBOW TAB AND LESSON

Guys it is possible to play Somewhere over the Rainbow by IZ on guitar so that it sounds like you were playing it with an ukulele. Use the three higher strings (G B E ) on your guitar for playing the chords. A ukulele is actually the 5th fret of the 4 higher strings of a guitar. In the intro part there are some tricky chords. Let's watch this video and how to play them. TAB helps below.


ISRAEL "IZ" KAMAKAWIWO'OLE SOMEWHERE OVER THE RAINBOW TAB

Intro

      C               Em              Am              F

e-x-x-8-8-x-x-8-8-x-x-7-7-x-x-7-7-x-x-5-5-x-x-5-5-x-x-5-5-x-x-5-5-------
B-x-x-8-8-x-x-8-8-x-x-8-8-x-x-8-8-x-x-5-5-x-x-5-5-x-x-6-6-x-x-6-6-------
G-x-x-9-9-x-x-9-9-x-x-9-9-x-x-9-9-x-x-5-5-x-x-5-5-x-x-5-5-x-x-5-5-------
D-----------------------------------------------------------------------
A-----------------------------------------------------------------------
E-----------------------------------------------------------------------

      C               Em              Am              F add9

e-x-x-8-8-x-x-8-8-x-x-7-7-x-x-7-7-x-x-5-5-x-x-5-5-x-x-5-5-x-x-5-5-------
B-x-x-8-8-x-x-8-8-x-x-8-8-x-x-8-8-x-x-5-5-x-x-5-5-x-x-8-8-x-x-8-8-------
G-x-x-9-9-x-x-9-9-x-x-9-9-x-x-9-9-x-x-5-5-x-x-5-5-x-x-5-5-x-x-5-5-------
D-----------------------------------------------------------------------
A-----------------------------------------------------------------------
E-----------------------------------------------------------------------

JASON MRAZ I'M YOURS TAB AND LESSON

In this video you can see how to play all the guitar parts in I'm yours by Jason Mraz.
There is a little intro, two verses (one with normal ending and the second ends with a tricky chord), a chorus and a bridge part. What is good in this song? You can play it with just a single guitar and it sounds cool.
TAB helps below.


JASON MRAZ I'M YOURS TAB                                                         Printable tab here

Intro
e-7/9.---7---------7/9.---6---------------------------------------------
B-7/9.---7---------7/9.---7---------7/9.--------------------------------
G-----------------------------------6/8.---8---------8.---8h9-----------
D------------------------------------------9---------9.---9-------------
A-----------------------------------------------------------------------
E-----------------------------------------------------------------------

Verse 1 & chorus (with high chords) 

      B                           F#
e-----7-------7-------7-------7-----------------------------------------
B-----7-x-x-x-7-x-x-x-7-x-x-x-7-x-----11-x-x-x-11-x-x-x-11-x-x-x-11-x---
G-----8-x-x-x-8-x-x-x-8-x-x-x-8-x-----11-x-x-x-11-x-x-x-11-x-x-x-11-x---
D-----9-x-x-x-9-x-x-x-9-x-x-x-9-x-----11-x-x-x-11-x-x-x-11-x-x-x-11-x---
A-----9-x-x-x-9-x-x-x-9-x-x-x-9-x-9----9--------9--------9--------9-----
E-7---7-------7-------7-------7-----------------------------------------

20130316

ERIC CLAPTON I SHOT THE SHERIFF TAB - SOLOS

Eric Clapton playing I shot the sheriff live at Crossroads Guitar Festival in 2010.
He is so powerful and he still sings better than everyone, so a lot of musicians should learn from him, not to mention his guitar playing. See the TAB of the magic intro and the cool final solo he plays with that blue Fender Stratocaster below.



ERIC CLAPTON I SHOT THE SHERIFF SOLO TAB                     Printable tab here
(LIVE AT CROSSROADS FESTIVAL 2010)

Intro solo

e-----------------------------------------------------------------------
B-----------------------------------------------------------------------
G----------3---5-3h5p3---3---5-3h5p3---3---5.---------------------------
D-x---5.---------------5-------------5----------------------------------
A-----------------------------------------------------------------------
E-----------------------------------------------------------------------


e-----------------------------------------------------------------------
B-13(15)------13-11-13-11-------------------------11--------------------
G-------------------------12-12~---10.------10-12----12~---10.----------
D-----------------------------------------------------------------------
A-----------------------------------------------------------------------
E-----------------------------------------------------------------------


e-----------------------------------------------------------------------
B-------11----13----11'-----------------------11----13----11'-----------
G-10-12----12----12---------12.---------10-12----12----12--------12.----
D-------------------------------------12--------------------------------
A-----------------------------------------------------------------------
E-----------------------------------------------------------------------

20130315

THE KILLERS MR BRIGHTSIDE TAB AND LESSON

Here is a short guitar lesson how to play the intro riff of The Killers Mr Brightside on guitar. Its a very tricky one. Be careful because the Killers play this song a half note lower, so they use Eb tuning, otherwise this guitar lesson is perfect.
Thanks "ThEnExTsYn" for sharing this! TAB helps below.


THE KILLERS MR BRIGHTSIDE TAB                                               Printable tab here

eb-----------------0------------------------------0---------------------
Bb--------------------17-----------------------------17-----------------
Gb---------19-------------19--------------19-------------19-------------
Db-----16------16-------------0-------16------16-------------0----------
Ab-17-----------------------------16------------------------------------
Eb----------------------------------------------------------------------


eb-----------------0------------------------------0---------------------
Bb--------------------17-----------------------------17-----------------
Gb---------19-------------19--------------19-------------19-------------
Db-----16------16-------------16------16------16-------------0----------
Ab----------------------------------------------------------------------
Eb-15-----------------------------15------------------------------------


eb-----------------0------------------------------0---------------------
Bb--------------------17-----------------------------17-----------------
Gb---------19-------------19--------------19-------------19-------------
Db-----16------16-------------0-------16------16-------------0----------
Ab-17-----------------------------16------------------------------------
Eb----------------------------------------------------------------------

TRACY CHAPMAN GIVE ME ONE REASON TAB AND LESSON

Short guitar lesson how to play the main riff  of Tracy Chapman Give me one reason on guitar. It is only a 12 measures long blues phrase. Easy to learn, pleasure to play guitar riff. Use your thumb to pick the bass notes and your other fingers for the higher strings. 
TAB helps below.



TRACY CHAPMAN GIVE ME ONE REASON TAB                           Printable tab here


e-----------------------------------------------------------------------
H-------2.-------2-2.---------4.-------6-6.-----------------------------
G-------3.-------3-3.---------4.-------6-6.-----------------------------
D-------4.-------4-4.---------4.-------6-6.-----------------------------
A---------------------0-2--------4--------------------------------------
E-2--------2--------------------------------0---------------------------


e-----------------------------------------------------------------------
H-------2.-------2-2.---------2.-------2-2.-----------------------------
G-------3.-------3-3.---------3.-------3-3.-----------------------------
D-------4.-------4-4.---------4.-------4-4.-----------------------------
A-------------------------------------------0---------------------------
E-2--------2----------0-2--------2--------------------------------------


e-----------------------------------------------------------------------
H-------4.-------4-4.---------4.-------6-6.-----------------------------
G-------4.-------4-4.---------4.-------6-6.-----------------------------
D-------4.-------4-4.---------4.-------6-6.-----------------------------
A-2--------2----------0-2--------4--------------------------------------
E-------------------------------------------0---------------------------

DRAGON BALL Z THEME SONG TAB

Chakalaka025 plays here a crazy guitar cover of the DRAGON BALL Z Theme song. Note that his B string gets mistuned by 1:06. You can expect some similar videos in the future. TAB below.


DRAGON BALL Z THEME SONG TAB                                             Printable tab here

  T      T      T      T      T      T      T      T
e-----------------------------------------------------------------------
H-12p7p5-12p7p5-12p7p5-12p7p5-12p7p5-12p7p5-12p7p5-12p7p5---------------
G-----------------------------------------------------------------------
D-----------------------------------------------------------------------
A-----------------------------------------------------------------------
E-----------------------------------------------------------------------


e-----------------------------------------------------------------------
H-----10---9-----10---9-------------------------------------------------
G-----9----9-9---9----9-------9---9---\7-7.---7-------------------------
D-9-9-9--9-9-9-9-9--9-9-9-9-9-9-9-9---\7-7.---7-------------------------
A-7-7----7-----7----7---7-7-7-7-7-7---\5-5.---5-------------------------
E-----------------------------------------------------------------------
  x x    x     x    x   x x x   x

e-----------------------------------------------------------------------
H-----------------------------------------------------------------------
G---7---7---\5-5.---5---------------------------------------------------
D-7-7-7-7---\5-5.---5---------------------------------------------------
A-5-5-5-5---\3-3.---3---------------------------------------------------
E-----------------------------------------------------------------------
  x   x        

20130311

DEEP PURPLE SMOKE ON THE WATER TAB - SOLO


Perfect cover of the legendary Ritchie Blackmore Smoke on the water solo played by hutgreen. Thank you hutgreen! Nice Stratocaster, cool sound, perfect playing and bends. Finally a guitarist who doesn't play with too much distortion.
TAB helps below.


DEEP PURPLE SMOKE ON THE WATER SOLO TAB                    Printable tab here


e-----------------------------------------------------------------------
H-----------------------(15)(13)-11---------11'-------------------------
G---------10---12~------------------12~---------------------------------
D-10/12-----------------------------------------------------------------
A-----------------------------------------------------------------------
E-----------------------------------------------------------------------


e-----------------------------------------------------------------------
H----------------------11.---11(13)------11.---10.---8.---10.-----------
G----------10.---12.----------------------------------------------------
D-10/12.----------------------------------------------------------------
A-----------------------------------------------------------------------
E-----------------------------------------------------------------------


e-----------------------------------------------------------------------
H-8h10p8\6.---8.---6.--------6.---------8.---------8~~------------------
G-----------------------8.--------10.--------10.------------------------
D-----------------------------------------------------------------------
A-----------------------------------------------------------------------
E-----------------------------------------------------------------------

20130310

QUEEN HAMMER TO FALL TAB - SOLO

Cool cover of Hammer to fall solo by Queen. Another awesome Brian May guitar solo. Use bridge pick up with heavy distortion. Try to listen to each part as many times as possible, because the video is quite fast. 
TAB helps below.

 

QUEEN HAMMER TO FALL TAB                                                      Printable tab here

e-----------------------------------------------------------------------
B---------------------10---12(14)(12)p10-12---12(14)~~~-----------------
G-6~---7---7/9~~--------------------------------------------------------
D-----------------------------------------------------------------------
A-----------------------------------------------------------------------
E-----------------------------------------------------------------------


e-----------------------------------------------------------------------
B-17(19)~---17---15---14h15h17------------------------------------------
G--------------------------------14---16---16(18)(16)p14-16(18).-14~----
D-----------------------------------------------------------------------
A-----------------------------------------------------------------------
E-----------------------------------------------------------------------

20130303

MURIS VARAJIC SILENT INNER CRY TAB

Muris Varajic plays his song Silent Inner Cry with a cool green Telecaster.
He makes a mix of traditional Balkan music elements with modern guitar approach and sound. Watch how many pull-offs, slides and hammer-ons he uses to make this song so cool. See the TAB of the main parts of the song under the video.

 

MURIS VARAJIC SILENT INNER CRY TAB                                     Printable tab here

e-----------------------------------------------------------------------
H-3---------------------------------------------------------------------
G-5---------------------------------------------------------------------
D-5---------------------------------------------------------------------
A-x---------------------------------------------------------------------
E-5---------------------------------------------------------------------


Part 1

e-----------------------------------------------------------------------
H-----------------------------------------------------------------------
G----7-----7~~-(8)(7)p5h7.----5/7-7-7-7-8p7-----------------------------
D-5-----5-----------------------------------10p8-10/12.--10h12p10~~\----
A-----------------------------------------------------------------------
E-----------------------------------------------------------------------

20130302

BOB MARLEY STIR IT UP TAB - SOLO

And finally here is a guitar cover how to play Bob Marley Stir it up solo for all the reggae fans. We love reggae too. Sorry for not using the WAH Pedal as in the original solo, but it sounds cool without it too and it's also easier to learn. So take your guitar, watch the video and use the TAB below. Solo starts by 3:26 in the album version.



BOB MARLEY STIR IT UP SOLO TAB                                             Printable tab here

e-----------------12---------12\----------------------------------------
H------10h12/14--------------14\----------------------------------------
G-9h11---------------------------------------2'-------------------------
D---------------------------------------4.--------4.---2~---------------
A-----------------------------------------------------------------------
E-----------------------------------------------------------------------


e-----------------------------5------7----------------------------------
H--------5~-----------5-5h7---------------------------------------------
G-4/6-------------------------------------------------------------------
D-----------------------------------------------------------------------
A-----------------------------------------------------------------------
E-----------------------------------------------------------------------


e-5h7-5---5------5--------------5---------------------------------------
H-------7--------5h7.---5---5---5h7.---5---5----------------------------
G-------------------------6--------------6------------------------------
D-----------------------------------------------------------------------
A-----------------------------------------------------------------------
E-----------------------------------------------------------------------

20130301

BILL HALEY ROCK AROUND THE CLOCK TAB AND LESSON

The best Rock and Roll song ever is Bill Haley - Rock around the clock. Ric Tester, our australian friend made a perfect guitar lesson of this song. Thank you Ric!
He shows us clearly how to play the intro, the verse and the solo parts and also explains everything you should know about Rock and Roll. TAB helps below.  


BILL HALEY ROCK AROUND THE CLOCK TAB                          Printable tab here


Intro

e-5-5.--5.--------9--9.---9.-------12.------12.-------12-12.------------
H-5-5.--5.-------10-10.--10.-------12.------12.-------12-12.------------
G-6-6.--6.--------9--9.---9.-------13.------13.-------13-13.------------
D-7-7.--7.-------11-11.--11.-------14.------14.-------14-14.------------
A-----------------------------------------------------------------------
E-----------------------------------------------------------------------

Verse

e-5---5---x-5---x-5--\----5---5---x-5---x-5--\--------------------------
H-5---5---x-5---x-5--\----5---5---x-5---x-5--\--------------------------
G-6---6---x-6---x-6--\----6---6---x-6---x-6--\--------------------------
D-7---7---x-7---x-7--\----7---7---x-7---x-7--\--------------------------
A-----------------------------------------------------------------------
E-----------------------------------------------------------------------

CHUCK BERRY JOHNNY B GOODE TAB AND LESSON

MacHardCase teaches us here how to play Johnny B. Goode by Chuck Berry. No matter if you don't have such a beautiful Gretsch guitar, it works cool with every type of guitars, just use a real tube amplifier. (not like here) TAB helps below.


CHUCK BERRY JOHNNY B GOODE TAB                                       Printable tab here

Intro

e-------5/6-6-6--5/6-6-6--6-6-------------------------------------------
H-----6-5/6-6-6--5/6-6-6--6-6--9-8-6------------------------------------
G-6/7--------------------------------6h7----7-7-7--7-7-7--7-7-----------
D----------------------------------------8--8-8-8--8-8-8--8-8-----------
A-----------------------------------------------------------------------
E-----------------------------------------------------------------------


e-------------------------6-----6------6-----6--------------------------
H-----6-8-6---------------6-----6------6-----6--------------------------
G-6/7-7-7-7--5--3-----8'----8'-----8'----8'----8'-----------------------
D------------------5----------------------------------------------------
A-----------------------------------------------------------------------
E-----------------------------------------------------------------------


e-----6-----6----------6-----6-----6---------8-6------------------------
H-----6-----6----------6-----6-----6--9-8-6------9-8-6------------------
G-8'----8'----8'---8'----8'----8'----------------------6h7--------------
D-----------------------------------------------------------------------
A-----------------------------------------------------------------------
E-----------------------------------------------------------------------