20140127

ERIC CLAPTON LAYLA TAB (OUTRO SOLO GUITAR PART)


WestcountryDude has decided to recreate the 1985 live outro solo of Eric Clapton's Layla. See the TAB of this particular solo under the video.



ERIC CLAPTON LAYLA TAB

PDF >>

Main theme ...

e-------10h13p10----10~------------13(15)----(13)~---12-----------------
B-10h13----------13-----------------------------------------13------15~-
G-----------------------------------------------------------------------
D-----------------------------------------------------------------------
A-----------------------------------------------------------------------
E-----------------------------------------------------------------------


e-------10h13p10----10~------------15(17)----(15)~---12-----------------
B-10h13----------13-----------------------------------------13------15~-
G-----------------------------------------------------------------------
D-----------------------------------------------------------------------
A-----------------------------------------------------------------------
E-----------------------------------------------------------------------


e-------10h13p10----10~------------13(15)----(13)~---12-----------------
B-10h13----------13-----------------------------------------13------15~-
G-----------------------------------------------------------------------
D-----------------------------------------------------------------------
A-----------------------------------------------------------------------
E-----------------------------------------------------------------------



e-------10h13p10----10~------------15(17)----(15)~---12-----------------
B-10h13----------13-----------------------------------------13----------
G-----------------------------------------------------------------------
D-----------------------------------------------------------------------
A-----------------------------------------------------------------------
E-----------------------------------------------------------------------


e-----------------------------------------------------------------------
B-----------------------------------------------------------------------
G-12----/10-10-----9----------------------------------------------------
D------------------------12-----10--------------------------------------
A--------------------------------------12---10h12---10~-----------------
E-----------------------------------------------------------------------


And the final solo from 0:42 ...

e-----------------------------------------------------------------------
B---------------------8---8h10---8--------------------------------------
G-----------5---7/9------------------9\7---5---5~-----------------------
D-5---5h7---------------------------------------------------------------
A-----------------------------------------------------------------------
E-----------------------------------------------------------------------


e-----------------------------------------------------------------------
B-----------------------------------------------------------------------
G-----5---7---7/9~--------9---10-/-12-12~-----10-10~--\9-9-9~---\7-7-7~-
D-5---------------------------------------------------------------------
A-----------------------------------------------------------------------
E-----------------------------------------------------------------------


e-----------------------------------------------------------------------
B-----------------------------------------------------------------------
G---p5-5p0-----5--------5---7---7/9~------------------------------------
D----------5-----5~-----------------------------------------------------
A-----------------------------------------------------------------------
E-----------------------------------------------------------------------


e-----------------------------------------------------------------------
B-----------------------------------------------------------------------
G-9---10-/-12-12~-----10-10~--\9-9-9~---\7-7-7~---p5-5h7-7~-------------
D-----------------------------------------------------------------------
A-----------------------------------------------------------------------
E-----------------------------------------------------------------------


e-----------------------------------------------------------------------
B-------------5-(6)(5)--------------------------------------------------
G-----5---7------------7~---5-------------------------------------------
D-6---------------------------6-----------------------------------------
A-----------------------------------------------------------------------
E-----------------------------------------------------------------------


e-----------------------------------------------------------------------
B-----------------------------------------------------------------------
G-----5---7---5h7p5-----7---5-------7p5-------7---5---------------------
D-5-----------------5-----------5---------5-------5---------------------
A-----------------------------------------------------------------------
E-----------------------------------------------------------------------


e-----------------------------------------------------------------------
B-----------------------------------------------------------------------
G--4---------------------------------7---5---4~-------------------------
D--------5/7~---------------------/7------------------------------------
A-----------------------------------------------------------------------
E-----------------------------------------------------------------------


e-----------------------------------------------------------------------
B--------------------------------------------------------8h10---8~-----\
G----5~-------------4------------------------7-----7/9------------------
D-/5--------------------5/7~--------------/7----------------------------
A-----------------------------------------------------------------------
E-----------------------------------------------------------------------


e-----------------------------------------------------------------------
B-8h10---8--------------------------------------------------------------
G------------9---7-\-5-----------5--------------------5---7---7/9~------
D------------------------7---5--------------------5---------------------
A-----------------------------------------------------------------------
E-----------------------------------------------------------------------


e-----------------------------------------------------------------------
B-----------------------------------------------------------------------
G-9---10-/-12-12~-----10-10~--\9-9-9~---\7-7-7~---p5-5p0-----5----------
D--------------------------------------------------------5-----5~-------
A-----------------------------------------------------------------------
E-----------------------------------------------------------------------


e-----------------------------------------------------------------------
B-----------------------------------------------------------------------
G-5---7---7/9~----------------------------------------------------------
D-----------------------------------------------------------------------
A-----------------------------------------------------------------------
E-----------------------------------------------------------------------


e-----------------------------------------------------------------------
B-----------------------------------------------------------------------
G-9---10-/-12-12~-----10-10~--\9-9-9~---\7-7-7~---p5-5h7-7~-------------
D-----------------------------------------------------------------------
A-----------------------------------------------------------------------
E-----------------------------------------------------------------------


e-----------------------------------------------------------------------
B-------------5---h6p5--------------------------------------------------
G-----5---7------------7~---5-------5---7---5h7p5-----7---5-------5-----
D-6---------------------------6---5---------------5-----------5---5-----
A-----------------------------------------------------------------------
E-----------------------------------------------------------------------


e-----------------------------------------------------------------------
B-/15(17)-----15(17)---15(17)---15(17)---15(17)~------------------------
G-----------------------------------------------------------------------
D-----------------------------------------------------------------------
A-----------------------------------------------------------------------
E-----------------------------------------------------------------------


e-----------------------------------------------------------------------
B-15(17)---15(17)---15(17)---15(17)~------------------------------------
G-----------------------------------------------------------------------
D-----------------------------------------------------------------------
A-----------------------------------------------------------------------
E-----------------------------------------------------------------------


e-----------------------------------------------------------------------
B-15(17)---15(17)---15(17)---15(17)---15(17)---15(17)---15(17)----------
G-----------------------------------------------------------------------
D-----------------------------------------------------------------------
A-----------------------------------------------------------------------
E-----------------------------------------------------------------------


e-----------------------------------------------------------------------
B-(15)p13-15~-------------13----13~-------------------------------------
G----------------------------14------------14---12~---\-----------------
D-----------------------------------------------------------------------
A-----------------------------------------------------------------------
E-----------------------------------------------------------------------


e---------15-15~-----17-\-----------------------------------------------
B-15/17-------------------------------17\15-13-13~----------------------
G-----------------------------------------------------14-\--------------
D-----------------------------------------------------------------------
A-----------------------------------------------------------------------
E-----------------------------------------------------------------------


e-15---13h15p13\12---13---15--------------------------------------------
B------------------------------15(17)(15)p13-13~------------------------
G----------------------------------------------------14---12h14~-----\--
D-----------------------------------------------------------------------
A-----------------------------------------------------------------------
E-----------------------------------------------------------------------


e-----------------------------------------13-15----------13-15----------
B-15(16)(15)-13----13~----13~----15(17)---------15(17)------------------
G---------------14------------------------------------------------------
D-----------------------------------------------------------------------
A-----------------------------------------------------------------------
E-----------------------------------------------------------------------


e-----------------------------------------------------------------------
B-15(17)(15)-13---------------------------------------------------------
G-----------------14-12h14---12-----------------------------------------
D-------------------------------14\12---10~-----------------------------
A-----------------------------------------------------------------------
E-----------------------------------------------------------------------


e-----------------------------------------------------------------------
B-----------------------------------------------------------------------
G-----------------------------------------------------------------------
D-------10---12/14-12-----\10-10-9~-------------------------------------
A-10h12-----------------------------------------------------------------
E-----------------------------------------------------------------------


e-----------------------------------------------------------------------
B-----------------------------------------------------------------------
G-------------------------12--------------------------------------------
D------------10---12/14--------14\12---10-------------------------------
A-10---10h12--------------------------------12---10---12~---------------
E-----------------------------------------------------------------------


e-----------------------------------------------------------------------
B-----------------------------------------------------------------------
G-------------------------12~------12~------12h14~-----12~--------------
D-----12-12~------12/14---------14-------14-----------------------------
A-/12-------------------------------------------------------------------
E-----------------------------------------------------------------------


e------------------------------17-\-------------------------------------
B-----------------17---20~----------------------------------------------
G-------17---19---------------------------------------------------------
D-/19-------------------------------------------------------------------
A-----------------------------------------------------------------------
E-----------------------------------------------------------------------


e-20---17h20p17------17---20-p-17--------17~----------------------------
B---------------20------------------20-----------20-20~---------18-18~--
G-----------------------------------------------------------------------
D-----------------------------------------------------------------------
A-----------------------------------------------------------------------
E-----------------------------------------------------------------------


e-----------------------------------------------------------------------
B-17---18---20---18(20)(18)---------------------------------------------
G---------------------------17-17~-------\------------------------------
D-----------------------------------------------------------------------
A-----------------------------------------------------------------------
E-----------------------------------------------------------------------


e-----------------------------------------------------------------------
B-------------------17----18----20-20(22)-----(20)-20-\-----------------
G-------17---19(21)-----------------------------------------------------
D-17h19-----------------------------------------------------------------
A-----------------------------------------------------------------------
E-----------------------------------------------------------------------


e-20---17h20p17------17---20-p-17--------17~----------------------------
B---------------20------------------20-----------20-20~------\----------
G-----------------------------------------------------------------------
D-----------------------------------------------------------------------
A-----------------------------------------------------------------------
E-----------------------------------------------------------------------


e-20p17----17-----------------------------------------------------------
B-------20----20p17----17-----------------------------------------------
G-------------------19----19p17----17-------------------------17~-------
D-------------------------------19----19p17------17---17h19-------------
A-------------------------------------------19--------------------------
E-----------------------------------------------------------------------


e-----------------------------------------------------------------------
B-----------------------------------------------------------------------
G-19---19(21)(19)---17---17h19---17-------------------------------------
D-------------------------------------19---17---------------------------
A-----------------------------------------------19\17---15---15~--------
E-----------------------------------------------------------------------


e-----------------------------------------------------------------------
B-----------------------------------------------------------------------
G---------17---17~-----h19.--------------19(21)(19)p17-17h19~----17-17~-
D-17/19-----------------------------------------------------------------
A-----------------------------------------------------------------------
E-----------------------------------------------------------------------


e-----------------------------------------------------------------------
B-----------------------------------------------------------------------
G-----------------------------------------------------------------------
D-----17h19---17--------------------------------------------------------
A------------------19\17---15---15h17-15--------15---15h17~-------------
E------------------------------------------17---------------------------


e------------------------------------------20(22)------(20)-20~~~~------
B-20(22)------(20)-20~--------------------------------------------------
G-----------------------------------------------------------------------
D-----------------------------------------------------------------------
A-----------------------------------------------------------------------
E-----------------------------------------------------------------------