20140126

ERIC CLAPTON LAYLA TAB (SOLO COVER BY RITCHIE BLACK SE)


Great  instrumental cover of Eric Clapton's Layla played by Ritchie Black SE.
See the TAB under the video.



ERIC CLAPTON LAYLA TAB                     

PDF >>

Part 1

e-----------------------------------------------------------------------
B-----------------------------------------------------------------------
G-------------2---2-----------------------------------2-----------------
D-----0-3p0---0---0---5.--3-------------5-------------0-----------------
A-0-3-------3---------3.--1-------0-----3-------0-----------------------
E-----------------------------------3.------------3.--------------------


e-----------------------------------------------------------------------
B-----------------------------------------------------------------------
G-------------2---2-----------------------------------2-----------------
D-----0-3p0---0---0---5.--3-------------5-------------0-----------------
A-0-3-------3---------3.--1-------0-----3-------0-----------------------
E-----------------------------------3.------------3.--------------------


Part 2

e-------10-13p10----10~------------13(15)-----13-----12-------------10--
B-10h13----------13-----------------------------------------13~---------
G-----------------------------------------------------------------------
D-----------------------------------------------------------------------
A-----------------------------------------------------------------------
E-----------------------------------------------------------------------



e-------10-13p10----10~------------15(17)-----15-----12-----------------
B-10h13----------13-----------------------------------------13~-----15~-
G-----------------------------------------------------------------------
D-----------------------------------------------------------------------
A-----------------------------------------------------------------------
E-----------------------------------------------------------------------


e-------10-13p10----10~------------13(15)-----13-----12~------------10--
B-10h13----------13-----------------------------------------13----------
G-----------------------------------------------------------------------
D-----------------------------------------------------------------------
A-----------------------------------------------------------------------
E-----------------------------------------------------------------------


e-------10-13p10----10~------------15(17)-----15-----12-----------------
B-10h13----------13-----------------------------------------13~---------
G-----------------------------------------------------------------------
D-----------------------------------------------------------------------
A-----------------------------------------------------------------------
E-----------------------------------------------------------------------


Part 3

e----------------------9h12----9----------------------------------------
B-x---x-x-12(14)------------12---9--------------------------------------
G----------------------------------11(13)(11)p9-11(13)~~~---------------
D-----------------------------------------------------------------------
A-----------------------------------------------------------------------
E-----------------------------------------------------------------------


e-----------------------------------------------------------------------
B----------9-12---------------------------------------------------------
G-11(13)--------9~~--------9--------------------------------------------
D----------------------------11-9---------------------------------------
A---------------------------------11\9p7-9/10\9p7-------7~--------------
E---------------------------------------------------9-------------------


e-----------------------------------------------------------------------
B---------------------------------------------------------9-10-11-12----
G-------------9---11(13)---(11)p9----11~~~----11-9-11(13)---------------
D--------9-11---------------------11------------------------------------
A-9/11------------------------------------------------------------------
E-----------------------------------------------------------------------


e-----------------------------------------------------------------------
B--------------------------12(14)-----12--------------------------------
G-11(13)(11)p9-11----9~------------------11(13)(11)-9~------------------
D-----------------11----------------------------------------------------
A-----------------------------------------------------------------------
E-----------------------------------------------------------------------


e---------------9-11-12-9-11-12-12/14~-------12---14.--(16)(14)---(16)--
B------12(14)-----------------------------------------------------------
G-11-9------------------------------------------------------------------
D-----------------------------------------------------------------------
A-----------------------------------------------------------------------
E-----------------------------------------------------------------------



Part 4 = Part 2



Part 5

e------------------4-7------4-7------4-7-------4-7.---4.----------------
B-x---x-x-7(9)---------7(9)-----7(9)-----7(9)---------------------------
G-----------------------------------------------------------------------
D-----------------------------------------------------------------------
A-----------------------------------------------------------------------
E-----------------------------------------------------------------------


e--------4--------4-4---------------------------------------------------
B-7(9)-----7(9)-------7---7-5~------------------------------------------
G-----------------------6------------6p4--------------------------------
D----------------------------------------6-5\4p2-4/5\4-2-------2~-------
A----------------------------------------------------------4------------
E------------------------------------------------------------x----------


e-----------------------------------------------------------------------
B----------------5.---7(9)---(7)p5-7~------7-----5p4--------------------
G-------4.---6----------------------------------------------------------
D-4/6-------------------------------------------------------------------
A-----------------------------------------------------------------------
E-----------------------------------------------------------------------


e--------------------7--------------------------7(9)-------7(9)---------
B-4-5-7-5-7(9)---------(9)(7)---5~------7p5---5-------------------------
G-------------------------------------------6---------------------------
D-----------------------------------------------------------------------
A-----------------------------------------------------------------------
E-----------------------------------------------------------------------


e-(9)---(7).------------------------------------------------------------
B--------------(9)(7)p5---5~----------7-\\\-----------------------------
G-----------------------6-----------------------------------------------
D-----------------------------------------------------------------------
A-----------------------------------------------------------------------
E-----------------------------------------------------------------------



Part 6 = Part 2


Part 7

e--------------------9-12----9------------------------------------------
B-x---x-x-12(14)----------12---9----------------------------------------
G--------------------------------11p9-------11(13)~~~-------------------
D-------------------------------------11.-------------------------------
A-----------------------------------------------------------------------
E-----------------------------------------------------------------------


e-----------------------------------------------------------------------
B-x---x-x-12------------------------------------------------------------
G-x---x-x-11(13)---(11).---9~-------------------------------------------
D-----------------------------------------------------------------------
A-----------------------------------------------------------------------
E-----------------------------------------------------------------------


e----------------------------------------------------------9.-----------
B--------------------------------------------------------------12~~-----
G--------------------------------------------9----11(13)----------------
D-11p9-----------------------------9----9h11---11-----------------------
A------11-11\9p7---9/10\9p7---9/11---11---------------------------------
E----------------9----------9-------------------------------------------


e-----------------------------------------------------------------------
B--------9-10-11-12----------------------------------------9-10-11-12---
G-11(13)------------11(13)(11)p9-11~------11-9-11-9-11(13)--------------
D-----------------------------------------------------------------------
A-----------------------------------------------------------------------
E-----------------------------------------------------------------------


e-------------9------------9--------------------------------------------
B-12---(14)---12(14)-----------12.--------------------------------------
G-----------------------------------------------------------------------
D-----------------------------------------------------------------------
A-----------------------------------------------------------------------
E-----------------------------------------------------------------------


e-14(16)-------(17).------(16)(14)p12----12~~-----12-\------------------
B-------------------------------------14--------------------------------
G-----------------------------------------------------------------------
D-----------------------------------------------------------------------
A-----------------------------------------------------------------------
E-----------------------------------------------------------------------



Part 8 = Part 2


Part 9

e-------10h13p10---13(15)-----(15)---(13)p10----------------------------
B-10h13--------------------------------------13(15)---------------------
G-----------------------------------------------------------------------
D-----------------------------------------------------------------------
A-----------------------------------------------------------------------
E-----------------------------------------------------------------------


e-10--------------------------------------------------------------------
B------13p10--------10--------------------------------------------------
G------------12(14)----(14)(12)-10~----10-\\\---------------------------
D-----------------------------------------------------------------------
A-----------------------------------------------------------------------
E-----------------------------------------------------------------------


e-----------------------------------------------------------------------
B------5-5--------------------------------------------------------------
G-/7-------7p5-7~--7p5--------------------------------------------------
D----------------------7\5p3-5/6\5p3---3--------------------------------
A------------------------------------5---5p3---5~-----------------------
E--------------------------------------------5--------------------------


e-----------------------------------------------------------------------
B------------13---------------------------------------------------------
G-12(14)---------(14)(12)-10~-------------------------------------------
D-----------------------------------------------------------------------
A-----------------------------------------------------------------------
E-----------------------------------------------------------------------


e-----------------------------------------------------------------------
B--------13(15)---13----------------------------------------------------
G--12p10---------------(14)(12)p10----10~------12(14).------------------
D----------------------------------12-----------------------------------
A-----------------------------------------------------------------------
E-----------------------------------------------------------------------


e----------13---------------------------15(17)-------(17)(15)p13h15-----
B-------13------15~----------15p13----------------------------------15~-
G-12/14----------------------------14.----------------------------------
D-----------------------------------------------------------------------
A-----------------------------------------------------------------------
E-----------------------------------------------------------------------


e-18(20)-----18(20)~---------17.--16-15--15-15h16p15--15----------------
B--------------------------------------18-----------18--18p15-----15~---
G------------------------------------------------------------17p14------
D-----------------------------------------------------------------------
A-----------------------------------------------------------------------
E-----------------------------------------------------------------------


e----------10-12-13p12-12(13)---(13)(12)p10----10-----------------------
B-13(15)------------------------------------13----13(15)----------------
G-----------------------------------------------------------------------
D-----------------------------------------------------------------------
A-----------------------------------------------------------------------
E-----------------------------------------------------------------------


e-10-13p10----10--------10----------------------------------------------
B----------13----13(15)-----------13------------------------------------
G--------------------------12(14)----(14)(12)-10----12p10-12(14)-10~----
D------------------------------------------------12---------------------
A-----------------------------------------------------------------------
E-----------------------------------------------------------------------