20140112

FRIPSIDE HESITATION SNOW TAB (COVER BY 062309A)


Hesitation Snow by fripSide covered by 062309A.
See the TAB under the video. (Part 2 soon ... )



FRIPSIDE HESITATION SNOW TAB

PDF >>

Part 1

e-----------------------------------------------------------------------
B-----------------------------------------------------------------------
G-----------------------------------------------------------------------
D-------------------------------------------------4-------4-------------
A-6-----------x-x-2-----------x-x-4-----------x-x-2-------1-------------
E-4-----------x-x-0-----------x-x-2-----------x-x-----------------------


e-----------------------------------------------------------------------
B-----------------------------------------------------------------------
G-----------------------------------------4h6-x-x---------6h8-x-x-------
D-------------------------------------6-6-----x-x-----8-8-----x-x-------
A-6-----------x-x-2-----------x-x-4-4-------------6-6-------------------
E-4-----------x-x-0-----------x-x---------------------------------------
                                  x x x x         x x x x  

e-----------------------------------------------------------------------
B-----------------------------------------------------------------------
G-----------------------------------------------------------------------
D-------------------------------------------------4-------4-------------
A-6-----------x-x-2-----------x-x-4-----------x-x-2-------1-------------
E-4-----------x-x-0-----------x-x-2-----------x-x-----------------------



e-----------------------------------------------------------------------
B-----------------------------------------------------------------------
G-----------------------------------------------------------------------
D-6-----------x-x-8-----------x-x-9-----------x-x-11----//-\\\----------
A-4-----------x-x-6-----------x-x-7-----------x-x-9-----//-\\\----------
E-----------------------------------------------------------------------


e-----------------------------------------------------------------------
B-----------------------------------------------------------------------
G-----------------------------------------4-4-3-3-4/6---4---3-----------
D-------------------------------------4-2-----------------------4-------
A-6-----------x-x-2-----------x-x---------------------------------------
E-4-----------x-x-0-----------x-x-2-2-----------------------------------
                                  x x x x x x x x

e-----------------------------------------------------------------------
B-----------------------------------------------------------------------
G-----------------------------------------4h6-x-x---------6h8p6---------
D-------------------------------------6-6-----x-x-----8-8-------8-\-----
A-6-----------x-x-2-----------x-x-4-4-------------6-6-------------------
E-4-----------x-x-0-----------x-x---------------------------------------
                                  x x x x         x x x x

e-----------------------------------------------------------------------
B-----------------------------------------------------------------------
G-----------------------------------------------------------------------
D-------------------------------------------------4-------4-------------
A-6-----------x-x-2-----------x-x-4-----------x-x-2-------1-------------
E-4-----------x-x-0-----------x-x-2-----------x-x-----------------------


e-----------------------------------------------------------------------
B-----------------------------------------------------------------------
G---------------------------------------------9----------------11-------
D-6-----------x-x-8-----------x-x-----6---9-----------8---11------------
A-4-----------x-x-6-----------x-x-7---------------9---------------------
E-----------------------------------------------------------------------
                                  x   x   x       x   x   x


Part 2 (with delay)

e-----------------------------------------------------------------------
B-12-x-11-x-----------------11-x-12-x-11-x------------------------------
G-----------13-x-11-13-x-11---------------------------------------------
D-----------------------------------------------------------------------
A-----------------------------------------------------------------------
E-----------------------------------------------------------------------


e-----------------------------------------------------------------------
B-----------------11-x-12-x-14p12-x-14-x-x------------------------------
G-13-x-11-13-x-11-------------------------------------------------------
D-----------------------------------------------------------------------
A-----------------------------------------------------------------------
E-----------------------------------------------------------------------


e-----------------------------------------------------------------------
B-12-x-11-x-----------------11-x-12p11-x-12-----------------------------
G-----------13-x-11-13-x-11---------------------------------------------
D-----------------------------------------------------------------------
A-----------------------------------------------------------------------
E-----------------------------------------------------------------------


e-----------------------------------------------------------------------
B----11------------11-x-12-x-14p12-x-14-x-x-----------------------------
G-13----11-13-11-x------------------------------------------------------
D-----------------------------------------------------------------------
A-----------------------------------------------------------------------
E-----------------------------------------------------------------------


e-----------------------------------------------------------------------
B-12-x-11-x-----------------11-x-12-11-x-12-----------------------------
G-----------13-x-11-13-x-11---------------------------------------------
D-----------------------------------------------------------------------
A-----------------------------------------------------------------------
E-----------------------------------------------------------------------


e---------------------------------------------14------14------14--------
B----11------------11-x-12-x-14p12---14----12------12-------------------
G-13----11-13-11-x----------------------11-----------------11-----------
D-----------------------------------------------------------------------
A-----------------------------------------------------------------------
E-----------------------------------------------------------------------


e-16------16------16---18------18------19------19------19---------------
B------14-----------------16----------------16--------------------------
G--------------13-------------------15--------------16------------------
D-----------------------------------------------------------------------
A-----------------------------------------------------------------------
E-----------------------------------------------------------------------



Part 3

e-----------------------------------------------------------------------
B-----------------------------------------------------------------------
G-----------------------------------------------------------------------
D-----------------------------------------------------------------------
A-5~--------------5-----7--/--9---2~------------------------------------
E-----------------------------------------------------------------------


e-----------------------------------------------------------------------
B-----------------------------------------------------------------------
G-----------------------------------------------------------------------
D-----------------------------------------------------------------------
A-x-x-2/4~------------4---5---7---5---7/9----------x-x-9/10---9---7-----
E-----------------------------------------------------------------------
                      x   x   x   x  

e-----------------------------------------------------------------------
B-----------------------------------------------------------------------
G------------------------------------------ tremolo --------------------
D-----------------------------------------------------------------------
A-7/9~-------------7~-------------5-------\\\\\--/////------------------
E-----------------------------------------------------------------------


e-----------------------------------------------------------------------
B-----------------------------------------------------------------<4>---
G-----------------------------------------------------------------------
D---------------------------------------- tremolo ----------------------
A-5/7~------------7---5---4---------------------------------------------
E-----------------------------7----------\\\\\\-----p0------------------


Part 4

e-----------------------------------------------------------------------
B-----------------------------------------------------------------------
G-----------------------------------------------------------------------
D-------------------------------------------------4-------4-------------
A-6-----------x-x-2-----------x-x-4-----------x-x-2-------1-------------
E-4-----------x-x-0-----------x-x-2-----------x-x-----------------------


e-----------------------------------------------------------------------
B-----------------------------------------------------------------------
G-----------------------------------------4h6-x-x---------6h8-x-x-------
D-------------------------------------6-6-----x-x-----8-8-----x-x-------
A-6-----------x-x-2-----------x-x-4-4-------------6-6-------------------
E-4-----------x-x-0-----------x-x---------------------------------------
                                  x x x x         x x x x  

e-----------------------------------------------------------------------
B-----------------------------------------------------------------------
G-----------------------------------------------------------------------
D-------------------------------------------------4-------4-------------
A-6-----------x-x-2-----------x-x-4-----------x-x-2-------1-------------
E-4-----------x-x-0-----------x-x-2-----------x-x-----------------------


e-----------------------------------------------------------------------
B-----------------------------------------------------------------------
G-----------------------------x-x-9---------------11-----16--\--13------
D-6-----------x-x-8-----------x-x---------------------------------------
A-4-----------x-x-6-----------x-x-7---------------9------14--\--11------
E-----------------------------------------------------------------------


Part 5

e-----------------------------------------------------------------------
B-----------------------------------------------------------------------
G-----------------------------------------4-4-3-3-4/6---4---3-----------
D---------------------------------4-4-4-2-----------------------4-------
A-6-----------x-x-2-----------x-x---------------------------------------
E-4-----------x-x-0-----------x-x---------------------------------------
                                      x x x x x   

e-----------------------------------------------------------------------
B-----------------------------------------------------------------------
G-----------------------------------------4h6-x-x-----6h8p6\4-----------
D-------------------------------------6-6-----x-x-------------6-\-------
A-6-----------x-x-2-----------x-x-4-4-------------6-6-------------------
E-4-----------x-x-0-----------x-x---------------------------------------
                                  x x x x         x x 

e-----------------------------------------------------------------------
B-----------------------------------------------------------------------
G-----------------------------------------4-4-3-3-4/6---4---3-----------
D---------------------------------4-4-4-2-----------------------4-------
A-6-----------x-x-2-----------x-x---------------------------------------
E-4-----------x-x-0-----------x-x---------------------------------------
                                      x x x x x   

e-----------------------------------------------------------------------
B-----------------------------------------------------------------------
G---------------------------------------------9-----------11-\----------
D-6-----------x-x-8-----------x-x-----6---9-----------8-----------------
A-4-----------x-x-6-----------x-x-7---------------9---------------------
E-----------------------------------------------------------------------
                                  x   x   x       x   x


Part 6

e-----------------------------------------------------------------------
B-----------------------------------------------------------------------
G-----------------------------------------------------------------------
D-----------------------------------------------------------------------
A-/5~--------------5-----7--/--9---2~----------x-x-2~~~-----------------
E-----------------------------------------------------------------------


e-----------------------------------------------------------------------
B-----------------------------------------------------------------------
G-----------------------------------------------------------------------
D-----------------------------2-------2/4~---------x-x-4h5---4-\-2------
A-x-x-2/4~------------4---5-------5----------------x-x------------------
E-----------------------------------------------------------------------
                      x   x       x  

e-----------------------------------------------------------------------
B-----------------------------------------------------------------------
G-----------------------------------------------------------------------
D-2/4-------------------4---5---7---5~---------------------5---4--------
A-----------------------------------------------------------------------
E-----------------------------------------------------------------------
                        x   x

e-----------------------------------------------------------------------
B-----------------------------------------------------------------------
G-----------------------------2---4~------------------------------------
D-2~------------------2---4---------------------------------------------
A-----------------------------------------------------------------------
E-----------------------------------------------------------------------
                          x   x

e-----------------------------------------------------------------------
B-----2h3p2---2h3p2-----------------------------------------------------
G-x-x-------4-------4-4---///-------------------------------------------
D-----------------------------------------------------------------------
A-----------------------------------------------------------------------
E-------------------------------\\\-------------------------------------


Part 7

e-----------------------------------------------------------------------
B-----------------------------------------------------------------------
G-----------------------------------------------------------------------
D-------------------------------------------------4-------4-------------
A-6-----------x-x-2-----------x-x-4-----------x-x-2-------1-------------
E-4-----------x-x-0-----------x-x-2-----------x-x-----------------------


e-----------------------------------------------------------------------
B-----------------------------------------------------------------------
G-----------------------------------------4h6-x-x---------6h8-x-x-------
D-------------------------------------6-6-----x-x-----8-8-----x-x-------
A-6-----------x-x-2-----------x-x-4-4-------------6-6-------------------
E-4-----------x-x-0-----------x-x---------------------------------------
                                  x x x x         x x x x  

e-----------------------------------------------------------------------
B-----------------------------------------------------------------------
G-----------------------------------------------------------------------
D-------------------------------------------------4-------4-------------
A-6-----------x-x-2-----------x-x-4-----------x-x-2-------1-------------
E-4-----------x-x-0-----------x-x-2-----------x-x-----------------------


e-----------------------------------------------------------------------
B-----------------------------------------------------------------------
G-----------------------------------------------------------------------
D-6-----------x-x-8-----------x-x-9-----------x-x-11---------x-x--------
A-4-----------x-x-6-----------x-x-7-----------x-x-9----------x-x--------
E-----------------------------------------------------------------------


e-----------------------------------------------------------------------
B-----------------------------------------------------------------------
G-----------------------------------------------------------------------
D-----------------------------------------------------------------------
A-6---------------------------------------------------------------------
E-4---------------------------------------------------------------------


Part 8

e-4---------------------------------------------------------------------
B---7-4-----------------------------------------------------------------
G-------6-6(8)---(6)p4------------------6~------------------------------
D----------------------6~-----\----/8-----------------------------------
A-----------------------------------------------------------------------
E-----------------------------------------------------------------------


e-----------------------------------------------------------------------
B-------7-h-9-------7---------------------------------------------------
G-6h8-----------8-------8~----------------------------------------------
D-----------------------------------------------------------------------
A-----------------------------------------------------------------------
E-----------------------------------------------------------------------
                x

e-----------------------------------------------------------------------
B--------------11-11-11---12---14---12---14(16)-----14(16)---14-12-11---
G-/13~------------------------------------------------------------------
D-----------------------------------------------------------------------
A-----------------------------------------------------------------------
E-----------------------------------------------------------------------


e-----------------14~--------14(16)---(14).--12.--11h12p11--------------
B-/11---11---12----------------------------------------------12/14.--12~
G-----------------------------------------------------------------------
D-----------------------------------------------------------------------
A-----------------------------------------------------------------------
E-----------------------------------------------------------------------


e-----------------------------------------------------------------------
B-11-12-12/14~---------12-14-14-/-16---16-/-19---19(21)~~~--------------
G-----------------------------------------------------------------------
D-----------------------------------------------------------------------
A-----------------------------------------------------------------------
E-----------------------------------------------------------------------


e---------------------------16-18-18(19)--------------------------------
B-16---19---19(21)~-----------------------------------------------------
G-----------------------------------------------------------------------
D-----------------------------------------------------------------------
A-----------------------------------------------------------------------
E-----------------------------------------------------------------------


e-18(19)---(18)---16--------16--------------------------------16--------
B----------------------19--------19~~~-------16.-----------16----19p16--
G-------------------------------------------------18(20)----------------
D-----------------------------------------------------------------------
A-----------------------------------------------------------------------
E-----------------------------------------------------------------------


e-----------------------------------------------------------------------
B-----------------------------------------------------------------------
G-18(20)-----(18)p16-18.--16.--15---16p15-16---18---18(20)~-------------
D-----------------------------------------------------------------------
A-----------------------------------------------------------------------
E-----------------------------------------------------------------------


e---------------------------------16-16-16.--18.--19.--21(23)-----------
B-19(21)--------------19~-----------------------------------------------
G-----------------------------------------------------------------------
D-----------------------------------------------------------------------
A-----------------------------------------------------------------------
E-----------------------------------------------------------------------


e-19p18-19--------16-16-18-19-19-18-18-16-16-19-19-18-18-16-------------
B-----------------------------------------------------------------------
G---------------------------FAST----------------------------------------
D-----------------------------------------------------------------------
A-----------------------------------------------------------------------
E-----------------------------------------------------------------------


e-----------------------------------------------------------------------
B-19-17.--16----16.--19-19(21)------------------------------------------
G------------18---------------------------------------------------------
D-----------------------------------------------------------------------
A-----------------------------------------------------------------------
E-----------------------------------------------------------------------


Part 9

e-----------------------------------------------------------------------
B-----------------------------------------------------------------------
G-----------------------------------------------------------------------
D-------------------------------------------------5-------5---x-x-------
A-7---------------3-----------x-x-5-----------x-x-3-------2---x-x-------
E-5---------------1-----------x-x-3-----------x-x-----------------------


e-----------------------------------------------------------------------
B---------------------------------------------------------10---\--------
G-----------------------------------------9-9-7-9-9-9-------------------
D-------------------------------------7-7-------------7-7---------------
A-7-----------x-x-3-----------x-x-5-5-----------------------------------
E-5-----------x-x-1-----------x-x---------------------------------------
                                  x x x x x x x x x x x x

e-----------------------------------------------------------------------
B-----------------------------------------------------------------------
G-----------------------------------------------------------------------
D-------------------------------------------------5-------5---x-x-------
A-7-----------x-x-3-----------x-x-5-----------x-x-3-------2---x-x-------
E-5-----------x-x-1-----------x-x-3-----------x-x-----------------------


e-----------------------------------------------------------------------
B-----------------------------------------------------------------------
G------------------------------------------10------------------12---\---
D-7-----------x-x-9-----------x-x-----10--------10--------12------------
A-5-----------x-x-7-----------x-x-8------------------10-----------------
E-----------------------------------------------------------------------
                                  x   x         x    x    x 

e-----------------------------------------------------------------------
B-----------------------------------------------------------------------
G-----------------------------------------------------------------------
D-------------------------------------------------5-------5---x-x-------
A-7-----------x-x-3-----------x-x-5-----------x-x-3-------2---x-x-------
E-5-----------x-x-1-----------x-x-3-----------x-x-----------------------


e-----------------------------------------------------------------------
B---------------------------------3p0-----------------------------------
G-------------------------------------2p0-----2p0-----------------------
D-----------------------------------------2p0-----2p0-------------------
A-7-----------x-x-3-----------x-x---------------------2p0---------------
E-5-----------x-x-1-----------x-x-------------------------0-------------


e-----------------------------------------------------------------------
B-----------------------------------------------------------------------
G-----------------------------------------------------------------------
D-------------------------------------------------5-------5---x-x-------
A-7-----------x-x-3-----------x-x-5-----------x-x-3-------2---x-x-------
E-5-----------x-x-1-----------x-x-3-----------x-x-----------------------


e-----------------------------------------------------------------------
B-----------------------------------------------------------------------
G------------------------------------------10------------------12---\---
D-7-----------x-x-9-----------x-x-----10--------10--------12------------
A-5-----------x-x-7-----------x-x-8------------------10-----------------
E-----------------------------------------------------------------------
                                  x   x         x    x    x 

e-----------------------------------------------------------------------
B-----------------------------------------------------------------------
G-----------------------------------------------------------------------
D-x-x-7-----------------------------------------------------------------
A-x-x-7--------------///----\\\\\\\\------------------------------------
E-x-x-5--------------///----\\\\\\\\------------------------------------