20140101

LINDSEY STIRLING SONG OF THE CAGED BIRD GUITAR TAB

This is a guitar cover of Lindsey Stirling - Song Of The Caged Bird.
In the video the guitar is tuned down with a full note (2 frets). However you can play the whole song also in standard tuning. In this case just play each note 2 frets lower.
Video by Daniel Wales. See the TAB under the video.



LINDSEY STIRLING SONG OF THE CAGED BIRD TAB         

PDF >>

Part 1

d-----------------------------------------------------------------------
A-----------------------------------------------------------12~---------
F-13~----------------------------11-h-13~-------------------------------
C-----------------------------------------------------------------------
G-----------------------------------------------------------------------
D-----------------------------------------------------------------------


d-12~----------------------------11~------------------------------------
A-------------------------------------------------------14---12---11----
F-----------------------------------------------------------------------
C-----------------------------------------------------------------------
G-----------------------------------------------------------------------
D-----------------------------------------------------------------------


d-----------------------------------------------------------------------
A-----------------------------------------------------------------------
F-13~------------------------------------------11~---------------11~----
C------------------------------------11---13------------14~-------------
G-------------------------------14--------------------------------------
D-----------------------------------------------------------------------



d-----------------------------------------------------------------------
A-------------------------------12--------14-------12-------11----------
F-13~-------------------------------------------------------------------
C-----------------------------------------------------------------------
G-----------------------------------------------------------------------
D-----------------------------------------------------------------------


d----------------11--------------------------------------------14~------
A------11---12----------------12-------------------------12-------------
F-13--------------------------------------13--------13------------------
C----------------------------------------------14-----------------------
G-----------------------------------------------------------------------
D-----------------------------------------------------------------------


d-11--------12~---------------11~---------12---11-----------------------
A------12-------------------------------------------14---12---11--------
F-----------------------------------------------------------------------
C-----------------------------------------------------------------------
G-----------------------------------------------------------------------
D-----------------------------------------------------------------------


d----------------11----------------------------------------12-----------
A------11---12------------12--------------------------12-----------12---
F-13-------------------------------13------------13---------------------
C-------------------------------------------14--------------------------
G-----------------------------------------------------------------------
D-----------------------------------------------------------------------


d-12~---------------------------11-------14-------19-------18-----------
A-----------------------------------------------------------------------
F-----------------------------------------------------------------------
C-----------------------------------------------------------------------
G-----------------------------------------------------------------------
D-----------------------------------------------------------------------


Part 2

d-19-16----16-19-16-16----------16----19-16----16-----------------------
A-------16-------------16----16----16-------16--------------------------
F-------------------------16--------------------------------------------
C-----------------------------------------------------------------------
G-----------------------------------------------------------------------
D-----------------------------------------------------------------------


d-19-16----16-19-16-------------------16----19-16-----------------------
A-------17----------17----------17-------17-----------------------------
F----------------------16----16----16-----------------------------------
C-------------------------18--------------------------------------------
G-----------------------------------------------------------------------
D-----------------------------------------------------------------------


d-16---14-16-14------14-------------12-11-------11----------------------
A-----------------17----17~---------------14-12----12-------11---12-----
F-----------------------------------------------------11h13-------------
C-----------------------------------------------------------------------
G-----------------------------------------------------------------------
D-----------------------------------------------------------------------


d-11----14----16----16/18-----------------------------------------------
A----12----12----12-----------------------------------------------------
F-----------------------------------------------------------------------
C-----------------------------------------------------------------------
G-----------------------------------------------------------------------
D-----------------------------------------------------------------------


d-16-18-19-18-16---16-18-19-18-16----16---19-/-23-----------------------
A---------------------------------19------------------------------------
F-----------------------------------------------------------------------
C-----------------------------------------------------------------------
G-----------------------------------------------------------------------
D-----------------------------------------------------------------------


d-21-23-21---19-21-19-18-19-18-16---------16----------------------------
A--------------------------------------------17----------------------17-
F-----------------------------------------------16--------------16------
C--------------------------------------------------18-14---18-----------
G-----------------------------------------------------------------------
D-----------------------------------------------------------------------


d------------------------------18--------16~----------------------------
A-16--------19-------20-------------------------------------------------
F-----------------------------------------------------------------------
C-----------------------------------------------------------------------
G-----------------------------------------------------------------------
D-----------------------------------------------------------------------


Part 3

d-------------------------------------14~-------------------------------
A-12-----------------------12-------------------------------------------
F------13--------13----------------13-----------------------------------
C-----------14----------------------------------------------------------
G-----------------------------------------------------------------------
D-----------------------------------------------------------------------


d-14---16---14---16---14---16---14---12---11----------------------------
A----------------------------------------------12-----------------------
F-----------------------------------------------------------------------
C-----------------------------------------------------------------------
G-----------------------------------------------------------------------
D-----------------------------------------------------------------------


d-------------------11--------------------------------------------------
A----11-12-11----12-----------12~----------------------12~--------------
F-13----------13-----------------------------11---13--------------------
C---------------------------------------14------------------------------
G-----------------------------------------------------------------------
D-----------------------------------------------------------------------


d-------------------12~---------------11-------14-------19-------18-----
A----------------12-----------------------------------------------------
F----11-13-11-13--------------------------------------------------------
C-14--------------------------------------------------------------------
G-----------------------------------------------------------------------
D-----------------------------------------------------------------------


Part 4 ~ Part 2

d-19-16----16-19-16-16----------16----19-16----16-----------------------
A-------16-------------16----16----16-------16--------------------------
F-------------------------16--------------------------------------------
C-----------------------------------------------------------------------
G-----------------------------------------------------------------------
D-----------------------------------------------------------------------


d-19-16----16-19-16-------------------16----19-16-----------------------
A-------17----------17----------17-------17-----------------------------
F----------------------16----16----16-----------------------------------
C-------------------------18--------------------------------------------
G-----------------------------------------------------------------------
D-----------------------------------------------------------------------


d-16---14-16-14------14-------------12-11-------11----------------------
A-----------------17----17~---------------14-12----12-------11---12-----
F-----------------------------------------------------11h13-------------
C-----------------------------------------------------------------------
G-----------------------------------------------------------------------
D-----------------------------------------------------------------------


d-11----14----16----16/18-----------------------------------------------
A----12----12----12-----------------------------------------------------
F-----------------------------------------------------------------------
C-----------------------------------------------------------------------
G-----------------------------------------------------------------------
D-----------------------------------------------------------------------


d-16-18-19-18-16---16-18-19-18-16----16---19-/-23-----------------------
A---------------------------------19------------------------------------
F-----------------------------------------------------------------------
C-----------------------------------------------------------------------
G-----------------------------------------------------------------------
D-----------------------------------------------------------------------


d-21-23-21---19-21-19-18-19-18-16---------16----------------------------
A--------------------------------------------17----------------------17-
F-----------------------------------------------16--------------16------
C--------------------------------------------------18-14---18-----------
G-----------------------------------------------------------------------
D-----------------------------------------------------------------------


d------------------------------18-------19~-----------------------------
A-16--------19-------20-------------------------------------------------
F-----------------------------------------------------------------------
C-----------------------------------------------------------------------
G-----------------------------------------------------------------------
D-----------------------------------------------------------------------


Part 5

d-23----------------------------------------23------21-23---------------
A-----------------------------------------------------------------------
F-----------------------------------------------------------------------
C-----------------------------------------------------------------------
G-----------------------------------------------------------------------
D-----------------------------------------------------------------------


d-21-23-21-19-18-19-16---18---19---16---19---18---16---14---12~---------
A-----------------------------------------------------------------------
F-----------------------------------------------------------------------
C-----------------------------------------------------------------------
G-----------------------------------------------------------------------
D-----------------------------------------------------------------------


d-/16~--------18~--------19~--------19~--------14~----------------------
A-----------------------------------------------------------------------
F-----------------------------------------------------------------------
C-----------------------------------------------------------------------
G-----------------------------------------------------------------------
D-----------------------------------------------------------------------


d-14----18----19----23--------------------------------------------------
A-----------------------------------------------------------------------
F-----------------------------------------------------------------------
C-----------------------------------------------------------------------
G-----------------------------------------------------------------------
D-----------------------------------------------------------------------


Part 6

d-19-16----16-19-16-16----------16----19-16----16-----------------------
A-------16-------------16----16----16-------16--------------------------
F-------------------------16--------------------------------------------
C-----------------------------------------------------------------------
G-----------------------------------------------------------------------
D-----------------------------------------------------------------------


d-19-16----16-19-16-------------------16----19-16-----------------------
A-------17----------17----------17-------17-----------------------------
F----------------------16----16----16-----------------------------------
C-------------------------18--------------------------------------------
G-----------------------------------------------------------------------
D-----------------------------------------------------------------------


d-16---14-16-14------14-------------12-11-------11----------------------
A-----------------17----17~---------------14-12----12-------11---12-----
F-----------------------------------------------------11h13-------------
C-----------------------------------------------------------------------
G-----------------------------------------------------------------------
D-----------------------------------------------------------------------


d-11----14----16----16/18-----------------------------------------------
A----12----12----12-----------------------------------------------------
F-----------------------------------------------------------------------
C-----------------------------------------------------------------------
G-----------------------------------------------------------------------
D-----------------------------------------------------------------------


d-16-18-19-18-16---16-18-19-18-16----16---19-/-23-----------------------
A---------------------------------19------------------------------------
F-----------------------------------------------------------------------
C-----------------------------------------------------------------------
G-----------------------------------------------------------------------
D-----------------------------------------------------------------------


d-21-23-21---19-21-19-18-19-18-16---------16----------------------------
A--------------------------------------------17----------------------17-
F-----------------------------------------------16--------------16------
C--------------------------------------------------18-14---18-----------
G-----------------------------------------------------------------------
D-----------------------------------------------------------------------


d--------------------16--------18---------------------------------------
A-16--------19----------------------------------------------------------
F-----------------------------------------------------------------------
C-----------------------------------------------------------------------
G-----------------------------------------------------------------------
D-----------------------------------------------------------------------


d-16-18-19-18-16---16-18-19-18-16---------------------------------------
A---------------------------------19-17---19----------------------------
F-----------------------------------------------------------------------
C-----------------------------------------------------------------------
G-----------------------------------------------------------------------
D-----------------------------------------------------------------------


d-16-18-19-18-16---16-18-19-18-16---------------------------------------
A---------------------------------19-17---19----------------------------
F-----------------------------------------------------------------------
C-----------------------------------------------------------------------
G-----------------------------------------------------------------------
D-----------------------------------------------------------------------


d-16---14-16-14------14-------------12-11-------11----------------------
A-----------------17----17~---------------14-12----12-------11---12-----
F-----------------------------------------------------11h13-------------
C-----------------------------------------------------------------------
G-----------------------------------------------------------------------
D-----------------------------------------------------------------------


d-11----14----16----16/18-----------------------------------------------
A----12----12----12-----------------------------------------------------
F-----------------------------------------------------------------------
C-----------------------------------------------------------------------
G-----------------------------------------------------------------------
D-----------------------------------------------------------------------


d-16-18-19-18-16---16-18-19-18-16----16---19-/-23-----------------------
A---------------------------------19------------------------------------
F-----------------------------------------------------------------------
C-----------------------------------------------------------------------
G-----------------------------------------------------------------------
D-----------------------------------------------------------------------


d-21-23-21---19-21-19-18-19-18-16---------16----------------------------
A--------------------------------------------17----------------------17-
F-----------------------------------------------16--------------16------
C--------------------------------------------------18-14---18-----------
G-----------------------------------------------------------------------
D-----------------------------------------------------------------------


d--------------------19--------18--------16~----------------------------
A-16--------19----------------------------------------------------------
F-----------------------------------------------------------------------
C-----------------------------------------------------------------------
G-----------------------------------------------------------------------
D-----------------------------------------------------------------------