20140122

RIHANNA UNFAITHFUL TAB (INSTRUMENTAL COVER BY PAUL HURLEY)


Paul Hurley plays a cool instrumental guitar cover of Rihanna's Unfaithful.
Awesome lead guitar playing with a great sound. See the TAB under the video.



RIHANNA UNFAITHFUL TAB

PDF >>

Part 1

e-----------------------------------------------------------------------
B-4-4-4-4---------4-4-4-4---------4-4-4-4-4\1-1-3~----------------------
G---------5~--------------5~--------------------------------------------
D-----------------------------------------------------------------------
A-----------------------------------------------------------------------
E-----------------------------------------------------------------------


e-----------------------------------------------------------------------
B-4-4-4-4---------4-4-4-4---------4-4-4-4-4\1-1-3~----------------------
G---------5~--------------5~--------------------------------------------
D-----------------------------------------------------------------------
A-----------------------------------------------------------------------
E-----------------------------------------------------------------------


e-----------------------------------------------------------------------
B-1-3-4/6-6/8---8-9-8-6---6~---\4-4-4-4-4-4h6---4\3---------------------
G-----------------------------------------------------------------------
D-----------------------------------------------------------------------
A-----------------------------------------------------------------------
E-----------------------------------------------------------------------



e-----------------------------------------------------------------------
B-4-4-4-4---------4-4-4-4---------4-4-4-4-4\3-3-3~----------------------
G---------5~--------------5~--------------------------------------------
D-----------------------------------------------------------------------
A-----------------------------------------------------------------------
E-----------------------------------------------------------------------


Part 2

e-----------------------------------------------------------------------
B-4-3-------------------------------------------------------------------
G-----5-3-5----/7~----8---7~----8----/10---8-----10----/12---10---------
D-----------------------------------------------------------------------
A-----------------------------------------------------------------------
E-----------------------------------------------------------------------


e-----------------------------------------------------------------------
B-9/11\9p8--------------------------------------------------------------
G----------10p8\5-----7-----8---7~----8--/10-8h10---8-------------------
D-----------------------------------------------------------------------
A-----------------------------------------------------------------------
E-----------------------------------------------------------------------


e-11-10-8---------------------------------------------------------------
B---------11/13~--------------------------------------------------------
G-----------------------------------------------------------------------
D-----------------------------------------------------------------------
A-----------------------------------------------------------------------
E-----------------------------------------------------------------------


Part 3

e-15-15-15-15-15-----15-----16-16~--------------------------------------
B-----------------------------------------------------------------------
G-----------------------------------------------------------------------
D-----------------------------------------------------------------------
A-----------------------------------------------------------------------
E-----------------------------------------------------------------------


e-13-13-13-13-13-----13-------16-15~------------------------------------
B-----------------------------------------------------------------------
G-----------------------------------------------------------------------
D-----------------------------------------------------------------------
A-----------------------------------------------------------------------
E-----------------------------------------------------------------------


e-15-15-15-15-15-----15-----16-16~--------------------------------------
B-----------------------------------------------------------------------
G-----------------------------------------------------------------------
D-----------------------------------------------------------------------
A-----------------------------------------------------------------------
E-----------------------------------------------------------------------


e-13-13-13-13-16---15-13-----15-----------------------------------------
B---------------------------------16---15-13----------------------------
G-----------------------------------------------------------------------
D-----------------------------------------------------------------------
A-----------------------------------------------------------------------
E-----------------------------------------------------------------------


e-15-15-15-15-16/18---16-15-----16--------------------------------------
B----------------------------------18~----------------------------------
G-----------------------------------------------------------------------
D-----------------------------------------------------------------------
A-----------------------------------------------------------------------
E-----------------------------------------------------------------------


e-------------15h16---15------18---15-----------------------------------
B-15-15-16-18------------18-------------18-16~--------------------------
G-----------------------------------------------------------------------
D-----------------------------------------------------------------------
A-----------------------------------------------------------------------
E-----------------------------------------------------------------------


e-----------------------------------------------------------------------
B-16---16-16h18---16-15~-----------------15----\11-11h13---13(15)(13)~--
G-----------------------------------------------------------------------
D-----------------------------------------------------------------------
A-----------------------------------------------------------------------
E-----------------------------------------------------------------------


e-------------------------------------13(15)-------(13)(15)-------------
B-13~------13~------13~------13~----------------------------------------
G-----------------------------------------------------------------------
D-----------------------------------------------------------------------
A-----------------------------------------------------------------------
E-----------------------------------------------------------------------


Part 4

e-11-11-11-11---------11-11-11-11---------11-11-11-11-11\8-8-10~----10~-
B------------13~-----------------13~------------------------------------
G-----------------------------------------------------------------------
D-----------------------------------------------------------------------
A-----------------------------------------------------------------------
E-----------------------------------------------------------------------


e-11-11-11-11---------11-11-11-11---------11-11-11-11-11h13--11-10~--10~
B------------13~-----------------13~------------------------------------
G-----------------------------------------------------------------------
D-----------------------------------------------------------------------
A-----------------------------------------------------------------------
E-----------------------------------------------------------------------


e-8-10-11/13-13/15---15-15(16)-15-13~---13~-----------------------------
B-----------------------------------------------------------------------
G-----------------------------------------------------------------------
D-----------------------------------------------------------------------
A-----------------------------------------------------------------------
E-----------------------------------------------------------------------


e-11-11-11-11-11h13---11-10---(11)(10)(11)-10~--------------------------
B-----------------------------------------------------------------------
G-----------------------------------------------------------------------
D-----------------------------------------------------------------------
A-----------------------------------------------------------------------
E-----------------------------------------------------------------------


e-11-11-11-11----------11-11-11-11----------11-11-11-11-13\18-----------
B-------------13~------------------13~----------------------------------
G-----------------------------------------------------------------------
D-----------------------------------------------------------------------
A-----------------------------------------------------------------------
E-----------------------------------------------------------------------


e-18(20)(18)---16-15----------------------------------------------------
B----------------------18-16-15-----------------------------------------
G-----------------------------------------------------------------------
D-----------------------------------------------------------------------
A-----------------------------------------------------------------------
E-----------------------------------------------------------------------


Part 5

e-----------------------------------------------------------------------
B-13~----15~----16---15~----16-----16/18---16-----18-----18(20)---18----
G-----------------------------------------------------------------------
D-----------------------------------------------------------------------
A-----------------------------------------------------------------------
E-----------------------------------------------------------------------


e-18-16-15--------------------------------------------------------------
B----------18-16-15\13-----15~----16---15~----16-----/18-16h18---16~----
G-----------------------------------------------------------------------
D-----------------------------------------------------------------------
A-----------------------------------------------------------------------
E-----------------------------------------------------------------------


e-----------------------------------------------------------------------
B-16~------16\15-15\13-13-----------------------------------------------
G-----------------------------------------------------------------------
D-----------------------------------------------------------------------
A-----------------------------------------------------------------------
E-----------------------------------------------------------------------


Part 6 ~ Part 3

e-15-15-15-15-15-----15-----16-16~--------------------------------------
B-----------------------------------------------------------------------
G-----------------------------------------------------------------------
D-----------------------------------------------------------------------
A-----------------------------------------------------------------------
E-----------------------------------------------------------------------


e-13-13-13-13-13-----13-------16-15~------------------------------------
B-----------------------------------------------------------------------
G-----------------------------------------------------------------------
D-----------------------------------------------------------------------
A-----------------------------------------------------------------------
E-----------------------------------------------------------------------


e-15-15-15-15-15-----15-----16-16~--------------------------------------
B-----------------------------------------------------------------------
G-----------------------------------------------------------------------
D-----------------------------------------------------------------------
A-----------------------------------------------------------------------
E-----------------------------------------------------------------------


e-13-13-13-13-16---15-13-----15-----------------------------------------
B---------------------------------16---15-13----------------------------
G-----------------------------------------------------------------------
D-----------------------------------------------------------------------
A-----------------------------------------------------------------------
E-----------------------------------------------------------------------


e-15-15-15-15-16/18---16-15-----16--------------------------------------
B----------------------------------18~----------------------------------
G-----------------------------------------------------------------------
D-----------------------------------------------------------------------
A-----------------------------------------------------------------------
E-----------------------------------------------------------------------


e-------------15h16---15------18---15-----------------------------------
B-15-15-16-18------------18-------------18-16~--------------------------
G-----------------------------------------------------------------------
D-----------------------------------------------------------------------
A-----------------------------------------------------------------------
E-----------------------------------------------------------------------


e-----------------------------------------------------------------------
B-16---16-16h18---16-15~-----------------15---15----\11-11h13-13.-------
G-----------------------------------------------------------------------
D-----------------------------------------------------------------------
A-----------------------------------------------------------------------
E-----------------------------------------------------------------------


Part 7

e-----------------------------------------------------------------------
B-15(16)-------15(16)(15)-13.--16(18)~~---(18)~~------------------------
G-----------------------------------------------------------------------
D-----------------------------------------------------------------------
A-----------------------------------------------------------------------
E-----------------------------------------------------------------------


e-----------------------------------------------18----------------------
B-18(20)-------(18)-18(20)~----(18)p16-18(20)------18(20)~--------------
G-----------------------------------------------------------------------
D-----------------------------------------------------------------------
A-----------------------------------------------------------------------
E-----------------------------------------------------------------------


e-----------------------------------------------------------------------
B-18(20)---(18)p16-------------------15(16)-----(15)------15(16)(15)----
G------------------17~------17~----------------------17--------------17-
D-----------------------------------------------------------------------
A-----------------------------------------------------------------------
E-----------------------------------------------------------------------


e-----------------------------------------------------------------------
B-16(18)-----------------------(16)~~~~~--------------------------------
G-----------------------------------------------------------------------
D-----------------------------------------------------------------------
A-----------------------------------------------------------------------
E-----------------------------------------------------------------------


Part 8

e-13(15)---13(15)(13)p11'-----------------------------------------------
B-------------------------------------13~~~---p11.----------------------
G-----------------------------------------------------------------------
D-----------------------------------------------------------------------
A-----------------------------------------------------------------------
E-----------------------------------------------------------------------


e-----------------------------------------------------------------------
B-11p9\8~---------------------------------------------------------------
G------------10p8-10/12~~-----------------\\\---------------------------
D-----------------------------------------------------------------------
A-----------------------------------------------------------------------
E-----------------------------------------------------------------------


e---8.-------10.-------11---13(15)-----------------13(15)(13)-11~~~-----
B-----------------------------------------------------------------------
G-8-------10-------/12--------------------------------------------------
D-----------------------------------------------------------------------
A-----------------------------------------------------------------------
E-----------------------------------------------------------------------


Part 9

e-15-15-15-15-15-----15-----16-16~--------------------------------------
B-----------------------------------------------------------------------
G-----------------------------------------------------------------------
D-----------------------------------------------------------------------
A-----------------------------------------------------------------------
E-----------------------------------------------------------------------


e-13-13-13-13-13-----13-------16-15~------------------------------------
B-----------------------------------------------------------------------
G-----------------------------------------------------------------------
D-----------------------------------------------------------------------
A-----------------------------------------------------------------------
E-----------------------------------------------------------------------


e-15-15-15-15-15-----15-----16-16~--------------------------------------
B-----------------------------------------------------------------------
G-----------------------------------------------------------------------
D-----------------------------------------------------------------------
A-----------------------------------------------------------------------
E-----------------------------------------------------------------------


e-13-13-13-13-16---15-13-----15-----------------------------------------
B---------------------------------16---15-13----------------------------
G-----------------------------------------------------------------------
D-----------------------------------------------------------------------
A-----------------------------------------------------------------------
E-----------------------------------------------------------------------


e-15-15-15-15-16/18---16-15-----16--------------------------------------
B----------------------------------18~----------------------------------
G-----------------------------------------------------------------------
D-----------------------------------------------------------------------
A-----------------------------------------------------------------------
E-----------------------------------------------------------------------


e-------------15h16---15------18---15-----------------------------------
B-15-15-16-18------------18-------------18-16~--------------------------
G-----------------------------------------------------------------------
D-----------------------------------------------------------------------
A-----------------------------------------------------------------------
E-----------------------------------------------------------------------


e-----------------------------------------------------------------------
B-16---16-16h18---16-15~---------------15~------15~-----\11-11h13-13~~~~
G-----------------------------------------------------------------------
D-----------------------------------------------------------------------
A-----------------------------------------------------------------------
E-----------------------------------------------------------------------


e-----------------------------------------------------------------------
B-13~~~~~~-----------15(16)---(15)(16)---------(16)(15)-----p13h15p13~--
G-----------------------------------------------------------------------
D-----------------------------------------------------------------------
A-----------------------------------------------------------------------
E-----------------------------------------------------------------------


e-----------------------------------------------------------------------
B-13~-----\11~--------11\8~---------------------------------------------
G---------------------------------10~-----(12)(10)(12)(10)~----p8-------
D-----------------------------------------------------------------10~---
A-----------------------------------------------------------------------
E-----------------------------------------------------------------------