20140117

SHIMMER TAB (RELAXING ACOUSTIC GUITAR MUSIC MIX BY WAVESDVDCOM)

Somber Guitar - Shimmer is the 3rd song by 6:13 on this wonderful mix here.
Use standard tuning with Capo on the 6th fret.
See the TAB under the video and enjoy the golden sand on the beach.



SHIMMER TAB

GP5 + GP6 + PDF >> 

Part 1                     - Capo on 6th -

e-----------------------------------------------------------------------
B-----------3---------------3---------------3---------------3-----------
G---------------0---------------0---------------0---------------0-------
D-----0-------0-------0-------0-------0-------0-------0-------0---------
A-3-------3-------3-------3-------3-------3-------3-------3-------------
E-----------------------------------------------------------------------


Part 2

e-----------------3---------------0h2-------------2---------------------
B-----3-----3---------------3-----------3-------------------3-----------
G-----0-------------------------0-----------0-------------------0-------
D-----0-------0-------0-------0-------0-------0-------0-------0---------
A-----------------------------------------------------------------------
E-3-------3-------3-------3-------3-------3-------3-------3-------------


e-0h2---2---------0---0-----------0h2---2---------0---0-----------------
B-----------3---------3-----3---------------3---------3-----3-----------
G---------------------0---------0---------------------0---------0-------
D-----0-------0---------------0-------0-------0---------------0---------
A-3-------3-------3-------3-------3-------3-------3-------3-------------
E-----------------------------------------------------------------------



e-----------------3-----------------------------2-------2---------------
B-----3-----3---------------3---------------3-------3-------3-----------
G-----0---------------------------------0-----------------------0-------
D-----0-------0-------0-------0-------0-------0-------0-------0---------
A-----------------------------------------------------------------------
E-0h3-----3-------3-------3-------3-------3-------3-------3-------------


e-0h2---2---------0---0-----------0h2-------------0---------------------
B-----------3---------3-----3-----------3---3---------------3-----------
G---------------------0---------0-------------------------------0-------
D-----0-------0---------------0-------0-------0-------0-------0---------
A-3-------3-------3-------3-------3-------3-------3-------3-------------
E-----------------------------------------------------------------------





DOWNLOAD THIS TAB IN GUITAR PRO



  • click 'Free Download'
  • add your e-mail address
  • you will get an e-mail with your download links (in a few seconds)
  • download the Guitar Pro 6 tab + GP5 + PDF for free
  • and that's all ...


Guitar Pro: a complete workshop for guitarists at an affordable price