20140124

THE ALL AMERICAN REJECTS IT ENDS TONIGHT TAB (FINGERSTYLE COVER BY THESTRAYANT)


Cool cover by TheStrayAnt playing It Ends Tonight by The All American Rejects.
See the TAB under the video. (0:00 - 1:03)



THE ALL AMERICAN REJECTS IT ENDS TONIGHT TAB 

GP5 + GP6 + PDF >>

Part 1

e-----------------------------------------------------------------------
B-----1.--1-----------1.--1---------------------------1.--1-------------
G-----2.--2-----------2.--2-----------2.--2-----------2.--2-------------
D-------------2---------------2-------3.--3---2---------------2---------
A-0---------------------------------------------------------------------
E-----------------3---------------1---------------3---------------------


e---------3-3-0-----------3-3-0---------------------1---0---------------
B-------1---------------1-------------1---1/3---1-----------3---0-1-----
G-----------------------------------2-----------------------------------
D---------------------------------0-------------------------------------
A-0-----------------------------------------------------------2---------
E-----------------1---------------------------------0-------------------


e---------3-3-0-----------3-3-0---------------------1---0---------------
B-------1---------------1-------------1---1/3---1-----------3---0-1-----
G-----------------------------------2-----------------------------------
D---------------------------------0-------------------------------------
A-0-----------------------------------------------------------2---------
E-----------------1---------------------------------0-------------------



e---------0---------------0---------------------3-3---1-0-0-3-----------
B-------------1-0---1-1-------1-0---1-1-----1-1---------------1-1-------
G-------2---------------2-------------0-----0---------------------------
D-----3---------------------------2-----------------2-------------------
A---3-------3-----3---------3---3-----3-----3-----3-------3-------------
E-1-------------1-----1-------------------------------------------------


e---------0---------------0---------------3---1-0-0-3-------------------
B-------------1-0---1-1-------1-0---1-----1---------------1-----1-------
G-------2---------------0-------------2-------------------0-----0-------
D-----3-----------2---------------2---0---0-----------0h2---------------
A---3-------3---3-----3-----3---3-------------------------3-----3-3-----
E-1---------------------------------------------------------------------



e-3---1---0---1-0-----0---------------0---------------------------------
B-1-----------------------3---1-----------3---1-------------------------
G-0-----------------------------0---------------0-----------------------
D-----------------------------------------------------------------------
A-3-------------------------------0-------------------------------------
E-----------------1-------------------------------3---------------------





DOWNLOAD THIS TAB IN GUITAR PRO


  • click 'Free Download'
  • add your e-mail address
  • you will get an e-mail with your download links (in a few seconds)
  • download the Guitar Pro 6 tab + GP5 + PDF for free
  • and that's all ...


Guitar Pro: a complete workshop for guitarists at an affordable price