20140215

ADELE ROLLING IN THE DEEP TAB (LESSON BY JUSTIN SANDERCOE)

Justin Sandercoe teaches us clearly how to play Rolling in the deep by Adele.
He plays the the first parts of the song with a cool singer, Salena. That makes it easy to understand how to play the song. If you have troubles with the chord changes see the TAB under the video.


ADELE ROLLING IN THE DEEP TAB

PDF >>

Intro

e-----------------------------------------------------------------------
B-----------------------------------------------------------------------
G-----------------------------------------------------------------------
D-10-10-10-10-10-10-10-10--10-10-10-10-10-10-10-10----------------------
A-10-10-10-10-10-10-10-10--10-10-10-10-10-10-10-10----------------------
E-8--8--8--8--8--8--8--8---8--8--8--8--8--8--8--8-----------------------
  x  x  x  x  x  x  x  x   x  x  x  x  x  x  x  x 


Verse

e-----------------------------------------------------------------------
B-----------------------------------------------------------------------
G-----------------------------------------------------------------------
D-10-10-10-10-10-10-10-10--10-5--5--5--5--5--5--5-----------------------
A-10-10-10-10-10-10-10-10--10-5--5--5--5--5--5--5-----------------------
E-8--8--8--8--8--8--8--8---8--3--3--3--3--3--3--3-----------------------
  x  x  x  x  x  x  x  x   x  x  x  x  x  x  x  x 

e-----------------------------------------------------------------------
B-----------------------------------------------------------------------
G-----------------------------------------------------------------------
D-5--8--8--8--8--8--8--8---8--5--5--5--5--8--8--8-----------------------
A-5--8--8--8--8--8--8--8---8--5--5--5--5--8--8--8-----------------------
E-3--6--6--6--6--6--6--6---6--3--3--3--3--6--6--6-----------------------
  x  x  x  x  x  x  x  x   x  x  x  x  x  x  x  x  



e-----------------------------------------------------------------------
B-----------------------------------------------------------------------
G-----------------------------------------------------------------------
D-10-10-10-10-10-10-10-10--10-5--5--5--5--5--5--5-----------------------
A-10-10-10-10-10-10-10-10--10-5--5--5--5--5--5--5-----------------------
E-8--8--8--8--8--8--8--8---8--3--3--3--3--3--3--3-----------------------
  x  x  x  x  x  x  x  x   x  x  x  x  x  x  x  x 

e-----------------------------------------------------------------------
B-----------------------------------------------------------------------
G-----------------------------------------------------------------------
D-5--8--8--8--8--8--8--8---8--5--5--5--5--8--8--8-----------------------
A-5--8--8--8--8--8--8--8---8--5--5--5--5--8--8--8-----------------------
E-3--6--6--6--6--6--6--6---6--3--3--3--3--6--6--6-----------------------
  x  x  x  x  x  x  x  x   x  x  x  x  x  x  x  x 

e-----------------------------------------------------------------------
B-----------------------------------------------------------------------
G-----------------------------------------------------------------------
D-10-10-10-10-10-10-10-10--10-5--5--5--5--5--5--5-----------------------
A-10-10-10-10-10-10-10-10--10-5--5--5--5--5--5--5-----------------------
E-8--8--8--8--8--8--8--8---8--3--3--3--3--3--3--3-----------------------
  x  x  x  x  x  x  x  x   x  x  x  x  x  x  x  x 

e-----------------------------------------------------------------------
B-----------------------------------------------------------------------
G-----------------------------------------------------------------------
D-5--8--8--8--8--8--8--8---8--5--5--5--5--8--8--8-----------------------
A-5--8--8--8--8--8--8--8---8--5--5--5--5--8--8--8-----------------------
E-3--6--6--6--6--6--6--6---6--3--3--3--3--6--6--6-----------------------
  x  x  x  x  x  x  x  x   x  x  x  x  x  x  x  x 

e-----------------------------------------------------------------------
B-----------------------------------------------------------------------
G-----------------------------------------------------------------------
D-10-10-10-10-10-10-10-10--10-5--5--5--5--5--5--5-----------------------
A-10-10-10-10-10-10-10-10--10-5--5--5--5--5--5--5-----------------------
E-8--8--8--8--8--8--8--8---8--3--3--3--3--3--3--3-----------------------
  x  x  x  x  x  x  x  x   x  x  x  x  x  x  x  x 

e-----------------------------------------------------------------------
B-----------------------------------------------------------------------
G-----------------------------------------------------------------------
D-5--8--8--8--8--8--8--8---8--5--5--5--5--8--8--8-----------------------
A-5--8--8--8--8--8--8--8---8--5--5--5--5--8--8--8-----------------------
E-3--6--6--6--6--6--6--6---6--3--3--3--3--6--6--6-----------------------
  x  x  x  x  x  x  x  x   x  x  x  x  x  x  x  x 


Bridge

e-----------------------------------------------------------------------
B-----------------------------------------------------------------------
G-----------------------------------------------------------------------
D-6--6--6--6--6--6--6--6---8--8--8--8--8--8--8--8-----------------------
A-6--6--6--6--6--6--6--6---8--8--8--8--8--8--8--8-----------------------
E-4--4--4--4--4--4--4--4---6--6--6--6--6--6--6--6-----------------------
  x  x  x  x  x  x  x  x   x  x  x  x  x  x  x  x 

e-----------------------------------------------------------------------
B-----------------------------------------------------------------------
G-----------------------------------------------------------------------
D-5--5--5--5--5--5--5--5---6--6--6--6--6--6--6--6-----------------------
A-5--5--5--5--5--5--5--5---6--6--6--6--6--6--6--6-----------------------
E-3--3--3--3--3--3--3--3---4--4--4--4--4--4--4--4-----------------------
  x  x  x  x  x  x  x  x   x  x  x  x  x  x  x  x 

e-----------------------------------------------------------------------
B-----------------------------------------------------------------------
G-----------------------------------------------------------------------
D-6--6--6--6--6--6--6--6---8--8--8--8--8--8--8--8-----------------------
A-6--6--6--6--6--6--6--6---8--8--8--8--8--8--8--8-----------------------
E-4--4--4--4--4--4--4--4---6--6--6--6--6--6--6--6-----------------------
  x  x  x  x  x  x  x  x   x  x  x  x  x  x  x  x 

e-----------------------------------------------------------------------
B--------------------------6--6--6--6--6--6--6--6-----------------------
G-3--3--3--3--3--3--3--3---4--4--4--4--4--4--4--4-----------------------
D-5--5--5--5--5--5--5--5---3--3--3--3--3--3--3--3-----------------------
A-5--5--5--5--5--5--5--5---5--5--5--5--5--5--5--5-----------------------
E-3--3--3--3--3--3--3--3---3--3--3--3--3--3--3--3-----------------------
 

Chorus

e-------3-----------3--3-3-------6-----------6--6-6---------------------
B-------4-----------4--4-4-------6-----------6--6-6---------------------
G-5--5--5--5--5--5--5--5-5-7--7--7--7--7--7--7--7-7---------------------
D-5--5--5--5--5--5--5--5-5-8--8--8--8--8--8--8--8-8---------------------
A-3--3--3--3--3--3--3--3-3-8--8--8--8--8--8--8--8-8---------------------
E--------------------------6--6--6--6--6--6--6--6-6---------------------


e-------4-----------4--4-4-------4--4-4-------6--6-6--------------------
B-------4-----------4--4-4-------4--4-4-------6--6-6--------------------
G-------5-----------5--5-5-------5--5-5-------7--7-7--------------------
D-6--6--6--6--6--6--6--6-6-6--6--6--6-6-8--8--8--8-8--------------------
A-6--6--6--6--6--6--6--6-6-6--6--6--6-6-8--8--8--8-8--------------------
E-4--4--4--4--4--4--4--4-4-4--4--4--4-4-6--6--6--6-6--------------------


e-------8-----------8--8-8-------6-----------6--6-6---------------------
B-------8-----------8--8-8-------6-----------6--6-6---------------------
G-------8-----------8--8-8-7--7--7--7--7--7--7--7-7---------------------
D-10-10-10-10-10-10-10-10108--8--8--8--8--8--8--8-8---------------------
A-10-10-10-10-10-10-10-10108--8--8--8--8--8--8--8-8---------------------
E-8--8--8--8--8--8--8--8-8-6--6--6--6--6--6--6--6-6---------------------


e-------4-----------4--4-4-------4--4-4-------6--6-6--------------------
B-------4-----------4--4-4-------4--4-4-------6--6-6--------------------
G-------5-----------5--5-5-------5--5-5-------7--7-7--------------------
D-6--6--6--6--6--6--6--6-6-6--6--6--6-6-8--8--8--8-8--------------------
A-6--6--6--6--6--6--6--6-6-6--6--6--6-6-8--8--8--8-8--------------------
E-4--4--4--4--4--4--4--4-4-4--4--4--4-4-6--6--6--6-6--------------------


e-8---------------------------------------------------------------------
B-8---------------------------------------------------------------------
G-8---------------------------------------------------------------------
D-10--------------------------------------------------------------------
A-10--------------------------------------------------------------------
E-8---------------------------------------------------------------------