20140209

ASTOR PIAZZOLA FUGA Y MISTERIO TAB (COVER BY FEDERICO OCHOA)

Federico Ochoa plays Astor Paizzola - Fuga y misterio with a classical guitar.
The original name of the video is FUGA Y MISTERIO PARA UNA SOLA GUITARRA.
See the TAB under the video.


FUGA Y MISTERIO TAB

PDF >>

Part 1

e------------------------------------------6---7---8-6-7----------------
B---------------------7---8---7---8---10--------------------------------
G---6-8---9---8---9-----------------------------------------------------
D-9-----9---------------------------------------------------------------
A-----------------------------------------------------------------------
E---------0--------------------------------0----------------------------


e-7.--12---10---8-----------------------------------------------7-7-7---
B-------------------12---11---8---7---7-------------------7-8-7---------
G-----------------------------------9------------------10---------------
D-----------------------------------------------------------------------
A-----------------------------------------------------------------------
E-----0-----------------------------------0-----------------------------


e-7---10---8-7--------------7-----------------------7-8-----------------
B--------------10---9-------------------10---9---10---------------------
G-------------------------------9---8-----------------------------------
D-----------------------------------------------------------------------
A---------------------------------------0-------------------------------
E-----0-----------------------------------------------------------------



e-8------7----7-8---7------------------------------------------7--------
B-----10---10---------10-8---7-------10.----------8---7---8-10----------
G-----------------------------------------7---6---0---------------------
D---------------0-------------------------0-----------------------------
A-----------------------------------------------------------------------
E--------------------------------------------------------------7--------


e-7-7-7-7-7-7-7--------------------7------------------------------------
B-----------------10-8-7---------------10-8-7---11---10-----------------
G--------------------------9------------------9---------12-11---9-------
D-----------------------------------------------------------------------
A-------------7------------7--------------------9---------------9-------
E-----7-----------------------------------------------------------------


e-----------------------------------------------------------------------
B-11---10---------10---8-7-------------10---8-7-------------------------
G---------12-11-9----------9---8----------------9-8-9-------------------
D-----------------------------------------------------------------------
A------9----------9-----------------------------------------------------
E------------------------------7------------7-------0-------------------


Part 2

e---------------------------------------------0---1h3-0-----------------
B---------------------0---1---0---1---3---4-----------------------------
G-----1---2---1---2-----------------------------------------------------
D-2h4---2---------------------------------------------------------------
A---------0-------------------------------------------------------------
E---------------------3---2-----------2---1-----------0-----------------


e---------0---5-----------------------------------------------0-0-0-----
B-----0-----------8---6---5---4---1---0---0-------------0-1-------------
G-1-------------------------------------2-------------3-----2-----------
D-----------------------------------------------------------------------
A-------------0-----------0---3---------------2-------------------------
E-------------------------------------------------------------0---------


e-----0---3---1-0-------------0---------------------0-1-----------------
B---------3-------3---2-------------------3---2---3---------------------
G-1---------------3---2---0-------3---2---------------2-----------------
D-----------------------------3-----------3---2---3---------------------
A-----------------------------------------------------------------------
E-----------------------------------------------------------------------


e-1-----0-----1---0----------------------------------------0------------
B-----3---3-3-------3-1---0-------3.-----------1---0---1h3--------------
G-------------------------0------------0-------0------------------------
D-------------0-----------0----------------4----------------------------
A----------------------------------------------3------------------------
E-------------------------3------------3-------------------0------------


e---0-0-0-0-0-0-0-------------------0-----------------------------------
B-4-----------------3-1-0---------------3-1-----4---3-1-0---------------
G---------------------------2---------------2-0-------------2-----------
D---------------------------------------------------------------1-------
A---------------0-------2-------3-------0-------2-------3---------------
E-------0---------------------------------------------------------------


e-----------------------------------------------------------------------
B-4---3-1-0-0-3---1-0---------------------------------------------------
G---------0-----------2---1---------------------------------------------
D-----3-----------------------------------------------------------------
A-------------2---------------------------------------------------------
E-----------------------------0-----------------------------------------


e-----------------------------------------------------------------------
B-3---1-0---------------------------------------------------------------
G---------2-1-2-2-2-2-2-2-2-2-2-2-2-2-2-2-2-2---------------------------
D-----------------------------------------------------------------------
A-------------0---------------------------------------------------------
E-----0-----------------------------------------------------------------



Part 3

e-----0-----------------------------------------------------------------
B-----0-----------1-0-1-------------------------------0-----------------
G-----0-----------0-------------------2-4-2-----------2-----------------
D-----------------2-------------------2-----4-2-------------------------
A-------------------------------------------------2-------2-------------
E-0-------0-------3-------3-------2-------2-----------------------------


e-----0-----------------------------------------------------------------
B-----0-----------1-0-1---------------------------3-1-3-----------------
G-----0-----------0-------------------2-4-2-------2-1-2-----------------
D-----------------2-------------------2-----4-2-------------------------
A-------------------------------------------------2-------2-------------
E-0-------2-------3-------2-------2-------2-----------------------------


e-----0---0-------3---3-------3-----------------------------------------
B-----1---1-------3-6-3-------3-----4/5-5-5-----4-5-5-5-5-5-5-5---------
G-----2---2-------4---4-------4-----4/5-5-5-----4-5-5-5-5-5-5-5---------
D-3.------3-------5---5-------5---------------------------0-------------
A---------------------------------0-------2-------3---------------------
E-----------------------------------------------------------------------


e-----------------1.--1-------------------------------------------------
B-----3---3.------1.--1-------------2h3-3-3.--2.--3-1-0---3-1-0---------
G-----2---2.------2.--2-------------0-------------------2-------2-------
D-1-------1.------3.------4---------------------------------------------
A-------------------------------------------------2-------2-------------
E---------------------------------3-------3-----------------------------



Part 4

e-----------------------------------------------------------------------
B-----------------------------------------------------------------------
G-------------------------------------2-4-2-4-2-0-0-0-0-----------------
D-----2-2-2-------2-2-2-------------------------------1-------1---------
A-----2-2-2-------2-2-2---------------------------2-------2-------------
E-0-----------------------3-------2-------------------------------------


e-----------------------------------------------------------------------
B-------------------------------------------------3-1-3-----------------
G-------------------------------------2-4-2-x-4-x-2-1-2-----------------
D-----2-2-2-------2-2-2-------------------------------------------------
A-----2-2-2-------2-2-2---------------------------2-------2-------------
E-0-----------------------3-------2-------------------------------------


e-----0---0-------3---3---------------/5.-----/5------5---5-------------
B-----1---1-------3---3---------------/5.-----/5------5---5-------------
G-----2---2-------4---4---------------/5.-----/5------5---5-------------
D-3-------3-------5-5-----5-----------/7.-----/7------7---7-------------
A---------------------------------0-------------------------------------
E-----------------------------------------------------------------------


e-x---------------1-1-1-----------------------/3------3---3-------------
B-x---3---3-------1-1-1---------------2.------/3------3---3-------------
G-x---2---2-------2-2-2---------------0.------/4------4---4-------------
D-x---0---0-------3-3-3-------4---------------/5------5---5---x---------
A-----------------------------------------------------------------------
E---------------------------------3-------------------------------------



Part 5

e-----------------------------------------------------------------------
B-----------------------------------------------------------------------
G-2---------------------------2---3---4---5-3-4-------------------------
D-----1---2---4---5---4---5---------------------------------------------
A-----------------------------0---1---2---3-1-2-------------------------
E-----0-------2---3---2---3---------------------------------------------


e-----------------------------------------------------------------------
B-----5---3---1---0-----------------------------------0-0-0-------------
G-4-------------------3---0-----------------------0---------------------
D-----5---4---2---0-----------4-2-4-----------3-4---4-------------------
A-2-------------------4---------------3---------------2-----------------
E-----------------------------------------------------------------------


e-----------------------------------------------------------------------
B-0---3---1-0-------------0---------------------0-1---------------------
G-----2-------2---1-------------------2---1---2-------------------------
D-------------3-------2-------2---1-------------------------------------
A-------------------------------------0-------2-------3-----------------
E-----------------------------0-----------------------------------------


e-----------------------------------------------------------------------
B---0---0-1---0---------------------------------------0-----------------
G-2---2---------2-0-----------2-----------0---------2-------------------
D-2-------0-----------4-----------0-----------4---0---------------------
A-----------------0-------5-----------4---------------2-----------------
E---------------------------------2-------3-----------------------------


e-----------------------------------------------------------------------
B-0-0-0-0-0-0-----------------------------------------------------------
G-------------4---2-0---------3---4---2-0-----3---2---------------------
D---------------------4---2---------------4-2-------5-4---3-------------
A-----2-----------------------------------------------------------------
E-------------0-----------0-----------0-------2-----------2-------------


e-----------------------------------------------------------------------
B-----------------------------------------------------------------------
G-5---3---2-------2---0---------------2---0-----------------------------
D-----------5-3-2-------4-2---1-------------4-1---2---------------------
A-----------------------------2-----------2-----------------------------
E---------2-------1-------------------------------0---------------------


Part 6

e--------------------------------------------------6---7---8-6-7--------
B-----------------------------7.--8.--7.--8.--10.-----------------------
G-----6.--8.------9.--8.--9.--------------------------------------------
D-9.----------9.--------------------------------------------------------
A-----------------------------------------------------------------------
E-----------------------------------------------------------------------


e-7.--12---10---8.--7.--------------------------------7-7-7.------------
B-----------------------11---8---7---7----------7-8-7-------------------
G----------------------------------9---------10-------------------------
D-----------------------------------------------------------------------
A-----------------------------------------------------------------------
E-----------------------------------------------------------------------


e-7---10---8-7--------------7-----------------------7-8-----------------
B--------------10---9-------------------10---9---10---------------------
G-------------------------------9---8-----------------------------------
D-----------------------------------------------------------------------
A-----------------------------------------------------------------------
E-----------------------------------------------------------------------


e-8------7-------8---7------------------------------------------7-------
B-----10---10-10-------10-8---7-------10-----------8---7---8-10---------
G------------------------------------------7---6.-----------------------
D-----------------------------------------------------------------------
A-----------------------------------------------------------------------
E-----------------------------------------------------------------------


e----7-7-7-7-7-7--------------------7------------6----------------------
B-11---------------10-8-7---------------10-8-7-------10-8-7-------------
G---------------------------9------------------9--------------9---------
D-----------------------------------------------------------------------
A-----------------------------------------------------------------------
E-----------------------------------------------------------------------


e-6---------------------------------------------------------------------
B-----10-8-7---10---8-7-------------10---8-7----------------------------
G-----------------------9---8----------------9-8-9----------------------
D-----------------------------------------------------------------------
A-----------------------------------------------------------------------
E-----------------------------------------------------------------------


e-0-----------------------------<12>------------------------------------
B-----------------------------<12>--------------------------------------
G-----------------------------------------------------------------------
D-----------------------------------------------------------------------
A-----------------------------------------------------------------------
E-----------------------------------------------------------------------