20140212

GALILEO GALILEI AOI SHIORI TAB (FINGERSTYLE COVER BY EVANFINGERSTYLE)

EvanFingerstyle plays a fingerstyle acoustic cover of Aoi Shiori by Galileo Galilei.
This song is the 'Ano Hi Mita Hana no Namae o Bokutachi wa Mada Shiranai' Opening Theme. Capo on the 2nd so a '-2-' in the tab means the open string. Tuning: DADGAD.
See the TAB under the video.


GALILEO GALILEI AOI SHIORI TAB

PDF >>

Part 1

D-2---4---2---4---2------14-<14>----<21>--------------------------------
A-2-2---2---2---2---2----14-----<14>------------------------------------
G-2-------------------11------------------------------------------------
D-2-----4---2---4---2---------------------------------------------------
A-2---------------------------------------------------------------------
D-----------------------------------------------------------------------


D-2---4---2---4---2------14-<14>----<21>--------------------------------
A-2-2---2---2---2---2----14-----<14>------------------------------------
G-2-------------------11------------------------------------------------
D-2-----4---2---4---2---------------------------------------------------
A-2---------------------------------------------------------------------
D-----------------------------------------------------------------------


Part 2

D-----------------------------------------------------------------------
A-2-------2-2-2h4-2-----------------------------------------------------
G-----------------------------------------------------------------------
D-----6---------------4-------2h4-6-7p6-4---2---4/6---------------------
A-----------------2-2-x-2-2-2---------------------------9-9-------------
D-2-2-x-2-2-2-x---------------x---4-4-x-4-4-2-x---7-7-x-7-7-7-x-2-------



D-----------------------------------------------------------------------
A-2-------2-2-2h4-2-----------------------------------------------------
G-----------------------------------------------------------------------
D-----6---------------4-------2h4-6-7p6-4---2---4/6---------------------
A-----------------2-2-x-2-2-2---------------------------9-9-------------
D-2-2-x-2-2-2-x---------------x---4-4-x-4-4-2-x---7-7-x-7-7-7-x-2-------


D---------------2-----------------------2-------------------------------
A-2-------2-2h4---6---7-----------2-4h6---6-4---2-------------2---------
G---2---------------------------2-----------------2---------2-----------
D-----6-----------------------------------------------6---6-------------
A-----------------2-2-x-2-2-2-------------------------------------------
D-2-2-x-2-2-2-x---------------x---4-4-x---4-4-x---7-7-x-7-7-7-x---------


D-------------------------------------------------2-----------2-------2-
A-----------------------------------------------------9-----------9-\-7-
G---------------------------------------------------------8-------------
D-2-------2h4-4h6-6-6h7-6\4-2---------------2-2h4-----------------------
A-----------------2-2-x-2-----x-----------------------------------------
D-2-2-x-2-2---x-------------------4-4-x-4-4-4-x---7-----x-----7---------



Part 3

D-----------------------2-----------------------------------------------
A-6---------------4---6-----6---4-2-------------2-----------------------
G-------------------------------------------2---------------------------
D---------4---------------2-----------7-6-6---------------------2-------
A-------2---------4---x-------------------4---x---4---x---4---x---------
D-6---x-------x---------------x---4---x---------------------------------


D---------------------2---------------------------2---------------------
A-2-------2-------2h4-2-6-4-4---2-2-2-----------2-2---4p2-------2-------
G-----------------------------------------------------------------------
D-------2-------2---------------------7---6---7-------------2-----------
A-2---x---2---x---2---x---2---x-------x---4---x---2---x---x---x---------
D---------------------------------4-------------------------------------


D-------------------------2--h4p2---------------------------------------
A-2---x---2---x---2--h4---2---------------------------------------------
G-4---x---4---x---2-------2---------------------------------------------
D-2---x---2---x---2-------2---------------------------------------------
A-2---x---2---x-2---------2---------------------------------------------
D---------------------x---2-------<6>-----------------------------------

          x               x             x             x
D-2-----4-4---6---2-----4-4---6---7-----6---4-----2---------------------
A-2-----2-2---2---2-----2-2---2---2-----2---2-----2---------------------
G-2-----2-2---2---2-----2-2---2---2-----2---2-----2---------------------
D-2-----4-4---6---2-----4-4---6---7-----6---4-----2---------------------
A-2-----2-2---2---2-----2-2---2---2-----2---2-----2---------------------
D-----------------------------------------------------------------------

          x               x             x             x
D-2-----4-4---6---2-----4-4---6---7-----6---4-----2---------------------
A-2-----2-2---2---2-----2-2---2---2-----2---2-----2---------------------
G-2-----2-2---2---2-----2-2---2---2-----2---2-----2---------------------
D-2-----4-4---6---2-----4-4---6---7-----6---4-----2---------------------
A-2-----2-2---2---2-----2-2---2---2-----2---2-----2---------------------
D-----------------------------------------------------------------------


Part 4
 
      x       x       x       x       x       x       x       x 
D-2-------x-------2-----2-----------------------------------------------
A-2-------x-------2---6-----2---------------------------2-----7\6-------
G-2-------x-------2-------------2-2---------------2-----------2---------
D-4-------x-------4---------------------6-\-----2-----------------------
A-4---------------4-----------------------------------------------------
D---------------4-------------------------------------------------------

      x       x       x       x       x       x       x       x 
D-----------------------4-------2-2-------------------------------------
A-6---------------2---------6-----2-------2-------4~------2-------------
G-2---------------2---------------2-------------------------------------
D-4---------------4-----------------------------6-----------------------
A-2---------------4-----------------------------------------------------
D---------------4-------------------------------------------------------

      x       x       x       x       x       x       x         
D-----------------------------------------------------------------------
A-2---------------------------------------------------------------------
G-4---------------2-----------------------------------------------------
D-7-------------------------------6~-----------h7p6\4---------2---------
A-2-----------------------------2---------------------------------------
D-------------------------------2---------------------------------------
 

and Part 5 is supposed to be ~ part 1


SEE ALSO