20140216

MARTY SCHWARTZ MAJOR PENTATONIC SCALE SOLO TAB


Marty Schwartz plays a cool solo in the first 38 seconds of this video.
He uses mainly the major pentatonic scale in standard tuning.
See the TAB under the video.



MAJOR PENTATONIC SOLO TAB

PDF >>

Chords

e-2--------------0---------------3--------------------------------------
B-3--------------1---------------0--------------------------------------
G-2--------------0---------------0--------------------------------------
D-0--------------2---------------0--------------------------------------
A----------------3---------------2--------------------------------------
E--------------------------------3--------------------------------------


Solo

e----12(14).---12-10~---------------------------------------------------
B---x---------------------12.---12(13)-------(13)(12)p10----------------
G--x-----------------------------------------------------12-11~-----9.--
D-x---------------------------------------------------------------------
A-----------------------------------------------------------------------
E-----------------------------------------------------------------------


e-------------------------------------------------------10h12(14)-10~---
B-------------------------------------------------10h12-----------------
G-7h9p7---7~-------------------------------7-9/11-----------------------
D-------9--------9-7-------------------7h9------------------------------
A--------------------9\7p5-------5h7/9----------------------------------
E--------------------------7-5h7----------------------------------------



e-----------------------------------------------------------------------
B-12----10----------------------10--------------------------------------
G----11----11\9p7---7-9(11)--------9(11)-----(9)p7-9.-(11)(9)p7---------
D-----------------9---------------------------------------------9-------
A-----------------------------------------------------------------------
E-----------------------------------------------------------------------


e---------10------------------------------------------------------------
B-----7-8----8p7--------------------------------------------------------
G-7h9------------9p7---7-9p7-7------7-----------------------------------
D--------------------9----------9-7---9-7h9---7~------------------------
A-----------------------------------------------------------------------
E-----------------------------------------------------------------------


e-----------------------------------------------------------------------
B--------------------------------------------------------------------10-
G-----------------------------------------7-9-9/10\9p7---7-9(11)--------
D-------------------------------------7h9--------------9----------------
A-9\7p5-7-7p5-------5-7/8\7p5---5-7/9-----------------------------------
E-------------7-5h7-----------7-----------------------------------------


e-----------------------------------------------------------------------
B-10--------------------------------------------------------------------
G-9(11)------(9)p7---7-7~-----------------------------------------------
D------------------9----------------------------------------------------
A-----------------------------------------------------------------------
E-----------------------------------------------------------------------


e-----------------------------------------------------------------------
B-----------------------------------------------------------------------
G-9p7----7--------------------------------------------------------------
D-----10---9-10p7-9----7-----7------------------------------------------
A-------------------10---8h9---9\7p5---7---5~---------------------------
E------------------------------------7---7------------------------------


e-----------------------------------------------------------------------
B-----------------------------------------------------------------------
G------------------------------------------------x-x-7-7-\--------------
D------------------------------------------------x-x--------------------
A-------7~-----p5-7(8).---(8)(7)p5~--------------x-x-5-5-\--------------
E-0-7-0-----------------------------------------------------------------