20140227

NICK DRAKE TIME HAS TOLD ME TAB AND GUITAR LESSON


Nick Drake has a special voice and guitar playing style. Time Has Told Me is one of his cool songs. It is played in Dropped C ( that is CGCFAD ) There is a short video that shows how to play the main guitar parts ( intro, verse and chorus ) slowed down.
See the TAB under the video.


NICK DRAKE TIME HAS TOLD ME TAB

PDF >>

Intro

D---------------------------------------------------2-------------------
A-------------3---------3-------3-----5-----3-----3---------------------
F-------------0-----------0-----0-----0-----0-----2---------------------
C-------------------------------------------------0---------------------
G-0-----0---0-2---------0-2---0-2---0-3---0-2---0-----------------------
C-----------------------------------------------------------------------


D-2-------2-----3-----2-------------------------------------------------
A-3-------3-----3-----3-----3-------------------------------------------
F-2-------2-----4-----2-----0-------------------------------------------
C---0---0-0---0-0---0-0-------------------------------------------------
G-------------------------0-2-------------------------------------------
C-----------------------------------------------------------------------


D---------------------------2-------------------------------------------
A-3-------3-----5-----3-----3---3---------------------------------------
F-0-------0-----0-----0-----2-------------------------------------------
C---------------------------0-------------------------------------------
G-0-2---0-2---0-3---0-2---0---------------------------------------------
C-----------------------------------------------------------------------



D---------2-----3-----2-----3-----(10)----------------------------------
A---------3-----3-----3-----3-------------------------------------------
F-2-------2-----4-----2-----4-------------------------------------------
C---0---0-0---0-0---0-0---0---------------------------------------------
G-----------------------------------------------------------------------
C---------------------------5-------------------------------------------


Verse

D-3-----3-----2-----3-----2---------------------------------------------
A-3-----3-----3-----3-----3---------------------------------------------
F-4-----4-----2-----4-----2---------------------------------------------
C-----0-----0-0---0-----0-----------------------------------------------
G-----------------------------------------------------------------------
C-5-----5-----------5-----0---------------------------------------------


D---2-----2-----3-----2-------------------------------------------------
A---3-----3-----3-----3-----3-------------------------------------------
F---2-----2-----4-----2-----0-------------------------------------------
C-0-0---0-0---0-0---0-0-----0-------------------------------------------
G-------------------------0-2-------------------------------------------
C-----------------------------------------------------------------------


D---------------------------2-------------------------------------------
A-3-------3-----5-----3-----3-------------------------------------------
F---0-----0-----0-----0-----2-------------------------------------------
C-----------------------------------------------------------------------
G-0-2---0-2---0-3---0-2---0---------------------------------------------
C---------------------------0-------------------------------------------


D-2-----2-----3-----2-----------8---------------------------------------
A-3-----3-----3-----3-----7-----------7-----7-----7-----7---------------
F-2-----2-----4-----2-----9-----------------7-----7-----7---------------
C-----0-0---0-0---0-0---0-0---------------0-0---0-0---0-0---------------
G-----------------------------------------------------------------------
C-----------------------------------------------------------------------


D-----------------------------------------------------------------------
A--8-----8-----8-----------8-----------8-----8-----8-----8-----8-----8--
F--7-----7-----7-----------7-----------9-----9-----9-----7-----7-----7--
C--9-----9-----9---0-----9-----0-----0-9-----9-----9-----9-----9-----9--
G-10----------------10-----------9-----7---------------7-----------7----
C-----------------------------------------------------------------------


D-------------------------------------3---------------(--3---5-0h2-----)
A-------2-----2-----2-----3-----2-----3---------------(--3-----3-----3-)
F-------2-----2-----2-----2-----2-----4---------------------------------
C-----2-------2-----2-----4-----2---------------------------------------
G-0---------------0-----0-----0-----0-----------------------------------
C-------------------------------------5------------------------0--------


Chorus

(end of 2nd verse)

D-----------------------------------------------------------------------
A--8-----8-----8-----------8-----------8-----8-----8-----8-----8-----8--
F--7-----7-----7-----------7-----------9-----9-----9-----7-----7-----7--
C--9-----9-----9---0-----9-----0-----0-9-----9-----9-----9-----9-----9--
G-10----------------10-----------9-----7---------------7-----------7----
C-----------------------------------------------------------------------


D-----------------------------------------------------------------------
A-------5-----5-----5--\--2.--------------------------------------------
F-------6-----6-----6--\--2.----2.--------------------------------------
C-------7-----7-----7--\--2.----3.--------------------------------------
G-0---------------0-----------------------------------------------------
C-----------------------------------------------------------------------


D-----------------------------------------------------------------------
A-------5-----5-----5-----5-----5-----4-----4-----4-----------3---------
F-------3-----3-----3-----3-----3-----2-----2-----2-----2-----3-----2---
C-------4-----4-----4-----4-----4-----3-----3-----3-----3-----3-----3---
G-----------------------------------------------------------------------
C-4---------------4-----4-----4-------3---------------3-----3-----3-----


D-----------------------------------------------------------------------
A---------3-----3-----3-----3-----3-----------0-----0-----2-----3-----2-
F---------0-----0-----0-----0-----0-----------1-----1-----2-----2-----2-
C---------3-----3-----3-----3-----3-----------2-----2-----2-----4-----2-
G-0-1---------------1-----1-----1-----------------------0-----0-----0---
C-------------------------------------0-2-------------------------------


D-----------------------------------------------------------------------
A---------5-----5-----5-----5-----5-----4-----4-----4-----------3-------
F---------3-----3-----3-----3-----3-----2-----2-----2-----2-----3-----2-
C---------4-----4-----4-----4-----4-----3-----3-----3-----3-----3-----3-
G-0---------------------------------------------------------------------
C---4---------------4-----4-----4-------3---------------3-----3-----3---


D-----------------------------------------------------------------------
A---------3-----3-----3-----3-----3-----------0-----0-----2-----3-----2-
F---------0-----0-----0-----0-----0-----------1-----1-----2-----2-----2-
C---------3-----3-----3-----3-----3-----------2-----2-----2-----4-----2-
G-0-1---------------1-----1-----1-----------------------0-----0-----0---
C-------------------------------------0-2-------------------------------


D---------------------------------------------2-------------------------
A---3-----------3-----------3-----3-----3-----3-------------------------
F---4-----------4-----------4-----4-----4-----2-------------------------
C---5-----------5-----------5-----5-----5-------------------------------
G-0---------------------------------------------------------------------
C---5---------5-----------5-----5-----5-----5-0-------------------------