20140202

OSAMURAI SAN SENKOU TAB


Osamurai San plays his own song 'Senkou' with an acoustic guitar.
The word 'Senkou' means flash. The tuning is Dropped D (that is D A D G B E)
See the TAB under the video.



OSAMURAI SAN SENKOU TAB

PDF >>
            
Part 1

e-----------------------------------------------------------------------
B-----------------------------------------------------------------------
G-----7-----9-----10-----9-----7.------7-----9-----10-----9-----7.------
D-----7-----7-----7------7-----7.------7-----7-----7------7-----7.------
A-----------------------------------------------------------------------
D-8-------8-----8------8-----8-----7-------7-----7------7-----7---------


e-----------------------------------------------------------------------
B-----------------------------------------------------------------------
G-----7-----9-----10-----9-----7.------9-----9-----9-----9-----9.-------
D-----6-----6-----6------6-----6.------7-----7-----7-----7-----7.-------
A-----------------------------------------------------------------------
D-6-------6-----6------6-----6-----7-------7-----7-----7-----7----------


e-----------------------------------------------------------------------
B-8-----8-----8---x-x-x---x-------x-x-----------------------------------
G-9-----9-----9---x-x-x---x-------x-x-----------------------------------
D-7-----7-----7---x-x-x---x-------x-x-----------------------------------
A-7-----7-----7---x-x-x---x-------x-x-----------------------------------
D-7-----7-----7-----------12-\\\----------------------------------------



Part 2

e-----------------------------------------------------------------------
B-3-----3-5-3-6---5-5-5-5-3---3-3-3-----3-5-3-6---5-5-5-5-3---3-3-------
G-2-----2-2-2-2---2-2-2-2-2---2-2-3-----3-3-3-3---3-3-3-3-3---3-3-------
D-0-----0-0-0-0---0-0-0-0-0---0-0-0-----0-0-0-0---0-0-0-0-0---0-0-------
A-0-----0-0-0-0---0-0-0-0-0---0-0-0-----0-0-0-0---0-0-0-0-0---0-0-------
D-0-----0-0-0-0---0-0-0-0-0---0-0-0-----0-0-0-0---0-0-0-0-0---0-0-------


e-----------------------------------------------------------------------
B-3-----3-5-3-6---5-5-5-5-3---3-3-2-----2-3-2-5---3-3-3-3-2---2-2-------
G-4-----4-4-4-4---4-4-4-4-4---4-4-3-----3-3-3-3---3-3-3-3-3---3-3-------
D-3-----3-3-3-3---3-3-3-3-3---3-3-2-----2-2-2-2---2-2-2-2-2---2-2-------
A-0-----0-0-0-0---0-0-0-0-0---0-0-0-----0-0-0-0---0-0-0-0-0---0-0-------
D-0-----0-0-0-0---0-0-0-0-0---0-0---------------------------------------


e-----------------------------------------------------------------------
B-3-----3-5-3-6---5-5-5-5-3---3-3-3-----3-5-3-6---5-5-5-5-3---3-3-------
G-2-----2-2-2-2---2-2-2-2-2---2-2-3-----3-3-3-3---3-3-3-3-3---3-3-------
D-0-----0-0-0-0---0-0-0-0-0---0-0-0-----0-0-0-0---0-0-0-0-0---0-0-------
A-0-----0-0-0-0---0-0-0-0-0---0-0-0-----0-0-0-0---0-0-0-0-0---0-0-------
D-0-----0-0-0-0---0-0-0-0-0---0-0-0-----0-0-0-0---0-0-0-0-0---0-0-------


e---------------------------------------------3---3-3-3-3---------------
B-3-----3-5-3-6---5-5-5-5-3---3-3-2-----2-2---2---2-2-2-2-0-------------
G-4-----4-4-4-4---4-4-4-4-4---4-4-3-----3-3---3---3-3-3-3-0-------------
D-3-----3-3-3-3---3-3-3-3-3---3-3-2-----2-2---2---2-2-2-2-0-------------
A-0-----0-0-0-0---0-0-0-0-0---0-0-0-----0-0---0---0-0-0-0-0-------------
D-0-----0-0-0-0---0-0-0-0-0---0-0---------------------------------------



Part 3

e-1---------------------3-1---------------------------------------------
B-x-----------------1---1---------1-x-1---------------3-------x---------
G-2-----2-x---------0---0---------2-x-2---------------3-----5-x---------
D-3-----3-x-----------------------3-x-3-----------------------x---------
A-1---------1---------------0---------0-----------------------x---------
D----------------------------------------/5---3---0---5-----------------


e-------0---0---------x-------------------------------------------------
B-3---------1-------1-x-1-----------------------------------------------
G-3---------2-------3-x-2-----------------------------------------------
D-2-------------------x-------------------------------------------------
A-3-------------------x-------------------------------------------------
D-------------3-------x-3---0---0---------------------------------------


e-1---------------------3-1---------------------------------------------
B-1-----------------1---1---------1-x-1---------------3-------x---------
G-2-----2-x---------0---0---------2-x-2---------------3-----5-x---------
D-3-----3-x-----------------------3-x-3--/5---3---------------x---------
A-1---------1---------------0---------0-----------0-----------x---------
D-----------------------------------------------------5-----------------


e--------------------x-0---0---0----------------------------------------
B-3----------2-----3-x-2---0---0----------------------------------------
G------------2-------x-2---0---0----------------------------------------
D------------2-------x-----0---0----------------------------------------
A------------0-------x-0---0---0----------------------------------------
D-5----5-5-x---------x--------------------------------------------------


e-1---------------------3-1---------------------------------------------
B-x-----------------1---1---------1-x-1---------------3-----3-x---------
G-2-----2-x---------0---0---------2-x-2---------------3-----5-x---------
D-3-----3-x-----------------------3-x-3---2h3-2h3-0-----------x---------
A-1---------1---------------0---------0-----------------------x---------
D-----------------------------------------------------5-----------------


e-------3---0-----------------------------------------------------------
B-3-----3---0---1-----------x-------------------------------------------
G-3-----------------------3-x-2-----------------------------------------
D-2-------------------------x-------------------------------------------
A-3-------------------------x-------------------------------------------
D-------------------3---------0-----1---0-------------------------------


e-1---------------------3-1---------------------------------------------
B-x-----------------1---1---------1-x-1---------------3-----3-x---------
G-2-----2-x---------0---0---------2-x-2---------------4-----5-x---------
D-3-----3-x-----------------------3-x-3-----------------------x---------
A-1---------1---------------0---------0-------3---0-----------x---------
D----------------------------------------/5-----------5-----------------


e---------------------------5-------------------------------------------
B-3-----------------2---3-x-0-----0---x---------------------------------
G-4-----------------2-----x-6---------x---------------------------------
D-------------0-----2-----x-----------x-0-------------------------------
A---------------0---0---0-x-0---------x---0-----------------------------
D-5-----5---x-----------------------------------------------------------


Part 4

e-----------------------------------------------------------------------
B-6---6---6---6---6-----8-----10---8---8---8---8---8-----10---11--------
G-3---3---3---3---3-----5-----7----5---5---5---5---5-----7----8---------
D-5---5---5---5---5----------------7---7---7---7---7--------------------
A-x---x---x---x---x----------------x---x---x---x---x--------------------
D-5---5---5---5---5----------------7---7---7---7---7--------------------


e-----------------------------6-----8---6-----5-------------x-x-x-x-----
B-10---10---10---10-10-10---------------x-----x---6-----6---6-6-6-6-----
G-10---10---10---10-10-10---------------5-----5---5-----5---x-x-x-x-----
D-8----8----8----8--8--8------------------------------------x-x-x-x-----
A-x----x----x----x--x--x------------------------------------x-x-x-x-----
D-8----8----8----8--8--8----------------3-----3---3-----3---x-x-x-x-----


e-----------------------------------------------------------------------
B-6---6---6---6-6-6-----8-----10---8---8---8---8-8-8-----10---11--------
G-3---3---3---3-3-3-----5-----7----5---5---5---5-5-5-----7----8---------
D-5---5---5---5-5-5----------------7---7---7---7-7-7--------------------
A-x---x---x---x-x-x----------------x---x---x---x-x-x--------------------
D-5---5---5---5-5-5----------------7---7---7---7-7-7--------------------


e--------------------------------x-10-----10---10---10-10-10---9-x------
B-10---10---10---10-10-10-----10-x-8------8----8----8--8--8----8-x------
G-10---10---10---10-10-10-----10-x-9------9----9----9--9--9----9-x------
D-x----x----x----x--x--x------x--x-x------x----x----x--x--x----x-x------
A-x----x----x----x--x--x------x--x-x------x----x----x--x--x----x-x------
D-8----8----8----8--8--8------8--x-7------7----7----7--7--7----7-x------



Part 5

e-1-----1-1---3---5---3---1-1-1-1-----1---3---1---1-1-1---1---1-1-------
B-1-----1-----------------1-1-1-1-----------------1-1-1---1---1-1-------
G-2-----2-----------------2-2-2-2-----------------2-2-2---2---2-2-------
D-0-------------------------0-0-3-----------------3-3-3---3---3-3-------
A-0-------------------------0-0-1-----1---1---1---1-1-1---1---1-1-------
D-0-------0---0-------------0-0-----------------------------------------


e-1---1---3---5---3-----1-----6-----5-----5.---5.-----------------------
B-1---1---1---0---1-----1-x-x-6-----6-8-6-5.---5.-----------------------
G-2---2---2---0---0-----0-x-x-5-----5-----x.---6.-----------------------
D-3---3---3---0---0-----0-x-x-5-----5-----7.---7.-----------------------
A-0---0---0---------------x-x-5-----5-----0.---0.-----------------------
D-----------------------------5-----5-----------------------------------


e-1-----1-1---3---5---3---1-1-1-1-----1---3---1---1-1-1---1---1-1-------
B-1-----1-----------------1-1-1-1-----------------1-1-1---1---1-1-------
G-2-----2-----------------2-2-2-2-----------------2-2-2---2---2-2-------
D-0-------------------------0-0-3-----------------3-3-3---3---3-3-------
A-0-------------------------0-0-1-----1---1---1---1-1-1---1---1-1-------
D-0-------0---0-------------0-0-----------------------------------------


e-1---1---3---5---3-----1-----6-----5-x-8-----8-8-----------------------
B-1---1---1---0---1-----1-x-x-6-----5-x-x-----x-x-----------------------
G-2---2---2---0---0-----0-x-x-5-------x-x-----x-x-----------------------
D-3---3---3---0---0-----0-x-x-5-------x-x-----x-x-----------------------
A-0---0---0---------------x-x-5-------x-0-----0-0-----------------------
D-----------------------------5-----5-x-0-----0-0-----------------------



Part 6

e-10----10101010--1010101010--10108-----8-8-8-8---8-8-8-8-8---8-8-------
B-x-----x-x-x-x---x-x-x-x-x---x-x-x-----x-x-x-x---x-x-x-x-x---x-x-------
G-7-----7-9-7-10--9-9-9-9-7---7-7-7-----7-9-7-10--9-9-9-9-7---7-7-------
D-0-----0-0-0-0---0-0-0-0-0---0-0-8-----8-8-8-8---8-8-8-8-8---8-8-------
A-0-----0-0-0-0---0-0-0-0-0---0-0-0-----0-0-0-0---0-0-0-0-0---0-0-------
D-0-----0-0-0-0---0-0-0-0-0---0-0-0-----0-0-0-0---0-0-0-0-0---0-0-------


e-7-----7-7-7-7---7-7-7-7-7---7-7---------------------------------------
B-8-----8-8-8-8---8-8-8-8-8---8-8-2-----2-3-2-5---3-3-3-3-2---2-2-------
G-7-----7-9-7-10--9-9-9-9-7---7-7-3-----3-3-3-3---3-3-3-3-3---3-3-------
D-9-----9-9-9-9---9-9-9-9-9---9-9-2-----2-2-2-2---2-2-2-2-2---2-2-------
A-0-----0-0-0-0---0-0-0-0-0---0-0-0-----0-0-0-0---0-0-0-0-0---0-0-------
D-0-----0-0-0-0---0-0-0-0-0---0-0---------------------------------------


e-10----10101010--1010101010--10108-----8-8-8-8---8-8-8-8-8---8-8-------
B-x-----x-x-x-x---x-x-x-x-x---x-x-x-----x-x-x-x---x-x-x-x-x---x-x-------
G-7-----7-9-7-10--9-9-9-9-7---7-7-7-----7-9-7-10--9-9-9-9-7---7-7-------
D-0-----0-0-0-0---0-0-0-0-0---0-0-8-----8-8-8-8---8-8-8-8-8---8-8-------
A-0-----0-0-0-0---0-0-0-0-0---0-0-0-----0-0-0-0---0-0-0-0-0---0-0-------
D-0-----0-0-0-0---0-0-0-0-0---0-0-0-----0-0-0-0---0-0-0-0-0---0-0-------


e-7-----7-7-7-7---7-7-7-7-7---7-7-3-----3-x-6-----6-6---6---------------
B-8-----8-8-8-8---8-8-8-8-8---8-8-2-----2-x-5-----5-5---5---------------
G-7-----7-9-7-10--9-9-9-9-7---7-7-3-----3-x-6-----6-6---6---------------
D-9-----9-9-9-9---9-9-9-9-9---9-9-2-----2-x-5-----5-5---5---------------
A-0-----0-0-0-0---0-0-0-0-0---0-0-0-----0-x-0-----0-0---0---------------
D-0-----0-0-0-0---0-0-0-0-0---0-0---------------------------------------




Part 7 ~ Part 3

Part 8 ~ Part 4

Part 9 ~ Part 5


Part 10   ( le tapping ... Osamurai San art :) )

      T   T   T   T   T   T   T   T   T   T   T   T   T   T   T
e-----------------------------------------------------------------------
B-----------------------------------------------------------------------
G-----------------------------------------------------------------------
D-7p0-5p0-7p0-8p0-7p0-5p0-7p0-8p0-7p0-5p0-7p0-8p0-7p0-5p0-7p0-8p0-------
A-0---------------------------------------------------------------------
D-0---------------------------------------------------------------------

  T   T   T   T   T   T   T   T   T   T   T   T   T   T   T   T
e-----------------------------------------------------------------------
B-----------------------------------------------------------------------
G-----------------------------------------------------------------------
D-7p0-5p0-7p0-8p0-7p0-5p0-7p0-8p0-7p0-5p0-7p0-8p0-7p0-5p0-7p0-8p0-------
A---------------------------------0-------------------------------------
D-<12>----------------------------0-------------------------------------

  T   T   T   T   T   T   T   T   T   T   T   T   T   T   T   T
e-----------------------------------------------------------------------
B-----------------------------------------------------------------------
G-----------------------------------------------------------------------
D-7p0-5p0-7p0-8p0-7p0-5p0-7p0-8p0-7p0-5p0-7p0-8p0-7p0-5p0-7p0-8p0-------
A-----------------------------------------------------------------------
D-12------------------------------10------------------------------------

  T   T   T   T   T   T   T   T   T   T   T   T   T   T   T   T
e-----------------------------------------------------------------------
B-----------------------------------------------------------------------
G-----------------------------------------------------------------------
D-7p0-5p0-7p0-8p0-7p0-5p0-7p0-8p0-7p0-5p0-7p0-8p0-7p0-5p0-7p0-8p0-------
A-----------------------------------------------------------------------
D-8-------------------------------7-------------------------------------


  T   T   T   T   T   T   T   T   T   T   T   T   T   T   T   T
e-----------------------------------------------------------------------
B-----------------------------------------------------------------------
G-----------------------------------------------------------------------
D-7p0-5p0-7p0-8p0-7p0-5p0-7p0-8p0-7p0-5p0-7p0-8p0-7p0-5p0-7p0-8p0-------
A-0-------0-------0-------0---0---0-------0-------0-------0---0---------
D-0-------0-------0-------0---0---0-------0-------0-------0---0---------


      T   T   T   T   T   T   T   T   T   T   T   T   T   T   T
e-----------------------------------------------------------------------
B-----------------------------------------------------------------------
G-----------------------------------------------------------------------
D-7p0-5p0-7p0-8p0-7p0-5p0-7p0-8p0-7p0-5p0-7p0-8p0-7p0-5p0-7p0-8p0-------
A-0-------0---0---0---0---0---0---0-0-0-0-0-0-0-0-0-0-0-0-0-0-0-0-------
D-0-------0---0---0---0---0---0---0-0-0-0-0-0-0-0-0-0-0-0-0-0-0-0-------




Part 11

e-----------------------3--/--5-------------------------5-----6---------
B-6---------------6---------------8---------------8---------------------
G-3---------------3---------------5---------------5---------------------
D-5-----------5-------------------------------5-------------------------
A---------------------------------0-------------------------------------
D-5---------------------------------------------------------------------


e-----------------------6-----8---6-----5.------------------------------
B-10--------------10--------------------------6-------------------------
G-10--------------10--------------5-----5.----5-------------------------
D---------------------------------3-----3.----3-------------------------
A-8-----------8---------------------------------------------------------
D-8-------------------------------3-----3.----3-------------------------


e-----------------------------------------------------------------------
B-6---6---6---6-6-6-----8-----10---8---8---8---8-8-8-----10---11--------
G-3---3---3---3-3-3-----5-----7----5---5---5---5-5-5-----7----8---------
D-5---5---5---5-5-5----------------7---7---7---7-7-7--------------------
A-x---x---x---x-x-x----------------x---x---x---x-x-x--------------------
D-5---5---5---5-5-5----------------7---7---7---7-7-7--------------------


e---------------------------------x-10-----10---10---10-10-10---10--x---
B-10---10---10---10-10-10---10-10-x-8------8----8----8--8--8----8---x---
G-10---10---10---10-10-10---10-10-x-9------9----9----9--9--9----9---x---
D-x----x----x----x--x--x----x--x--x-x------x----x----x--x--x----x---x---
A-x----x----x----x--x--x----x--x--x-x------x----x----x--x--x----x---x---
D-8----8----8----8--8--8----8--8--x-7------7----7----7--7--7----7---x---


e------------------------/----------------------------------------------
B---------11.----------///----------------------------------------------
G-12------12.--------/////----------------------------------------------
D-11------11.--------\\\\\----------------------------------------------
A-0-------0.-----------\\\----------------------------------------------
D------------------------\----------------------------------------------



 

Part 12 ~ Part 5

e-1-----1-1---3---5---3---1-1-1-1-----1---3---1---1-1-1---1---1-1-------
B-1-----1-----------------1-1-1-1-----------------1-1-1---1---1-1-------
G-2-----2-----------------2-2-2-2-----------------2-2-2---2---2-2-------
D-0-------------------------0-0-3-----------------3-3-3---3---3-3-------
A-0-------------------------0-0-1-----1---1---1---1-1-1---1---1-1-------
D-0-------0---0-------------0-0-----------------------------------------


e-1---1---3---5---3-----1-----6-----5-----5.---5.-----------------------
B-1---1---1---0---1-----1-x-x-6-----6-8-6-5.---5.-----------------------
G-2---2---2---0---0-----0-x-x-5-----5-----x.---6.-----------------------
D-3---3---3---0---0-----0-x-x-5-----5-----7.---7.-----------------------
A-0---0---0---------------x-x-5-----5-----0.---0.-----------------------
D-----------------------------5-----5-----------------------------------


e-1-----1-1---3---5---3---1-1-1-1-----1---3---1---1-1-1---1---1-1-------
B-1-----1-----------------1-1-1-1-----------------1-1-1---1---1-1-------
G-2-----2-----------------2-2-2-2-----------------2-2-2---2---2-2-------
D-0-------------------------0-0-3-----------------3-3-3---3---3-3-------
A-0-------------------------0-0-1-----1---1---1---1-1-1---1---1-1-------
D-0-------0---0-------------0-0-----------------------------------------


e-1---1---3---5---3-----1-----6-----5-x-3-----3-3-----------------------
B-1---1---1---0---1-----1-x-x-6-----5-x-2-----2-2-----------------------
G-2---2---2---0---0-----0-x-x-5-------x-3-----3-3-----------------------
D-3---3---3---0---0-----0-x-x-5-------x-2-----2-2-----------------------
A-0---0---0---------------x-x-5-------x-x-----x-x-----------------------
D-----------------------------5-----5-x-x-----x-x-----------------------


e-1-----1-1---3---5---3---1-1-1-1-----1---3---1---1-1-1---1---1-1-------
B-1-----1-----------------1-1-1-1-----------------1-1-1---1---1-1-------
G-2-----2-----------------2-2-2-2-----------------2-2-2---2---2-2-------
D-0-------------------------0-0-3-----------------3-3-3---3---3-3-------
A-0-------------------------0-0-1-----1---1---1---1-1-1---1---1-1-------
D-0-------0---0-------------0-0-----------------------------------------


e-1---1---3---5---3-----1-----6-----5-----5.---3------------------------
B-1---1---1---0---1-----1-x-x-6-----6-8-6-5.---2------------------------
G-2---2---2---0---0-----0-x-x-5-----5-----x.---2------------------------
D-3---3---3---0---0-----0-x-x-5-----5-----7.---2------------------------
A-0---0---0---------------x-x-5-----5-----0.---0------------------------
D-----------------------------5-----5-----------------------------------


e-1-----1-1---3---5---3---1-1-1-1-----1---3---1---1-1-1---1---1-1-------
B-1-----1-----------------1-1-1-1-----------------1-1-1---1---1-1-------
G-2-----2-----------------2-2-2-2-----------------2-2-2---2---2-2-------
D-0-------------------------0-0-3-----------------3-3-3---3---3-3-------
A-0-------------------------0-0-1-----1---1---1---1-1-1---1---1-1-------
D-0-------0---0-------------0-0-----------------------------------------


e-1---1---3---5---3-----1-----6-----8-x-11------12----------------------
B-1---1---1---0---1-----1-x-x-5-----5-x-11------11----------------------
G-2---2---2---0---0-----0-x-x-7-----7-x-9-------12----------------------
D-3---3---3---0---0-----0-x-x-5-------x-x-------11----------------------
A-0---0---0---------------x-x-5-------x-0-------0-----------------------
D-----------------------------5-------x-0-------0-----------------------



Finish

e-x-----x-x-x-------x----x------x--x--x--x----x----x--x----x--x----x--x-
B-6-----8-x-10------10---10-----10-10-10-10---10---10-10---10-10---10-10
G-7-----9-x-10------10---10-----10-10-10-10---10---10-10---10-10---10-10
D-x-----x-x-x-------x----x------x--x--x--x----x----x--x----x--x----x--x-
A-x-----x-x-x-------x----x------x--x--x--x----x----x--x----x--x----x--x-
D-5-----7-x-8-------8----8------8--8--8--8----8----8--8----8--8----8--8-


e-x-----x-x-x-------x----x------x--x-x--x-x--x----x-x-x-x----x----x---x-
B-6-----8-x-10------10---10-----10-x-10-x-10-10---10101010---10---10--x-
G-7-----9-x-10------10---10-----10-x-10-x-10-10---10101010---10---10--x-
D-x-----x-x-x-------x----x------x--x-x--x-x--x----x-x-x-x----x----x---x-
A-x-----x-x-x-------x----x------x--x-x--x-x--x----x-x-x-x----x----x---x-
D-5-----7-x-8-------8----8------8--x-8--x-8--8----8-8-8-8----8----8---x-


e-x-----x-x-x-------x---x-----x-x-x------x---x-----x-x-x------x-x-----\-
B-6-----8-x-10------x---6-----8-x-10-----x---6-----8-x-10-----x-10----\-
G-7-----9-x-10------x---7-----9-x-10-----x---7-----9-x-10-----x-10----\-
D-x-----x-x-x-------x---x-----x-x-x------x---x-----x-x-x------x-x-----\-
A-x-----x-x-x-------x---x-----x-x-x------x---x-----x-x-x------x-x-----\-
D-5-----7-x-8-------x---5-----7-x-8------x---5-----7-x-8------x-8-----\-