20140228

RAFA EL TACHUELA MORENA TAB

This song called Rafa El Tachuela - Morena was one of our Facebook game winner.
Use standard tuning with CAPO on the 4th and a '-4-' in the tab means the open string.
See the TAB under video.



RAFA EL TACHUELA MORENA TAB

PDF >>

Part 1

e---------4-------4-----4-----------------4-------4-----4---------------
B-------5---5---5-----5-----5-----------5---5---5-----5-----5-----------
G-----8-------8-----8---8-----8-------8-------8-----8---8-----8---------
D-----------------6-------------------------------6---------------------
A-4-----------------------------4---------------------------------------
E---------------------------------7-----------------------------7-------


e---------4-------4-----4---------------------4-------------------------
B-------5---5---5-----5-----5---------------4--4------------------------
G-----6-------6-----6---6-----6-----------6-----6--p5-------------------
D-----------------6---------------------6--------6----------------------
A-------------------------------------6-----------6---------------------
E-5-----------------------------5-4----------------4--------------------


e---------4-------4-----4-----------------4-------4-----4---------------
B-------5---5---5-----5-----5-----------5---5---5-----5-----5-----------
G-----8-------8-----8---8-----8-------8-------8-----8---8-----8---------
D-----------------6-------------------------------6---------------------
A-4-----------------------------4---------------------------------------
E---------------------------------7-----------------------------7-------



e---------4-------4-----4-------------4-4-4-4-4-4--------------------9--
B-------5---5---5-----5---------------4-4-4-4-4-4----------9---10-12----
G-----6-------6-----6---6-------------6-6-6-6-6-5-----------------------
D-----------------6-------------------6-6-6-6-6-6-----------------------
A-------------------------------------6-6-6-6-6-6-----------------------
E-5-----------------------------5-4-------------4-----------------------


Part 2

e-12p11p9-4-------4-9-12/16-16-16-14-16.--------------------------------
B-----------5---5-------------------------------------------------------
G-------------6---------------------------------------------------------
D-----------------------------------------------------------------------
A-----------------------------------------------------------------------
E-----------------------------------------------------------------------


e-11p9p7-----------7-11/14-14-14-12-14.---------------------------------
B--------7-------7------------------------------------------------------
G----------8---8--------------------------------------------------------
D------------9----------------------------------------------------------
A-----------------------------------------------------------------------
E-----------------------------------------------------------------------


e-9p7p5-----------5---------4-5-9-8p5p4-----------4-----4-5-7-9-11------
B-------5-------5-----4-5-7-------------4-------4---5-7-----------------
G---------6---6-----6---------------------5---5-------------------------
D-----------7-------------------------------6---------------------------
A-----------------------------------------------------------------------
E-----------------------------------------------------------------------


e-12p11p9-4-------4-9-12/16-16-16-14-16.--------------------------------
B-----------5---5-------------------------------------------------------
G-------------6---------------------------------------------------------
D-----------------------------------------------------------------------
A-----------------------------------------------------------------------
E-----------------------------------------------------------------------


e-11p9p7-----------7-11/14-14-14-12-14.---------------------------------
B--------7-------7------------------------------------------------------
G----------8---8--------------------------------------------------------
D------------9----------------------------------------------------------
A-----------------------------------------------------------------------
E-----------------------------------------------------------------------


e-9p7p5-----------5---------4-5-9-8p5p4-----------4h5-4---4-------------
B-------5-------5-----4-5-7-------------4-------4-------7---7-5-4-------
G---------6---6-----6---------------------5---5-------------------------
D-----------7-------------------------------6---------------------------
A-----------------------------------------------------------------------
E-----------------------------------------------------------------------


Part 3

e---------4-------4-----4-----------------4-------4-----4---------------
B-------5---5---5-----5-----5-----------5---5---5-----5-----5-----------
G-----8-------8-----8---8-----8-------8-------8-----8---8-----8---------
D-----------------6-------------------------------6---------------------
A-4-----------------------------4---------------------------------------
E---------------------------------7-----------------------------7-------


e---------4-------4-----4-------------4-4-4-4-4-4-----------------------
B-------5---5---5-----5-----5---------4-4-4-4-4-4-----------------------
G-----6-------6-----6---6-----6p4-----6-6-6-6-6-5-----------------------
D-----------------6-------------------6-6-6-6-6-6-----------------------
A-------------------------------------6-6-6-6-6-6-----------------------
E-5-------------------------------4-------------4-----------------------


Part 4

e-----------------------------------------------------------------------
B-----------------------------------------------------------------------
G-8-8-8h9--9-9-9h11--11-11-11/13--13-13-13-----11h13p11---9-------------
D-----------------------------------------------------------------------
A-------- extremely fast -----------------------------------------------
E-----------------------------------------------------------------------


e-----------------------------------------------------------------------
B-----------------------------------------------------------------------
G-8-8-8h9--9-9-9h11--11-11-11/13--13-13-13-----11h13p11---9-------------
D-----------------------------------------------------------------------
A-----------------------------------------------------------------------
E-----------------------------------------------------------------------


e-----------------------------------------------------------------------
B-----------------------------------------------------------------------
G-8-8-8h9--9-9-9h11--11-11-11/13--13-13-13-----11h13p11---9-------------
D-----------------------------------------------------------------------
A-----------------------------------------------------------------------
E-----------------------------------------------------------------------


e-----------------------------------------------------------------------
B-----------------------5h8p5---4-----4-5-------------------------------
G-9h12p9\8---8----------------------6-----------------------------------
D-----------------------------------------------------------------------
A-----------------------------------------------------------------------
E-----------------------------------------------------------------------


e-----------------------------------------------------------------------
B-----------------------------------------------------------------------
G-8-8-8h9--9-9-9h11--11-11-11/13--13-13-13-----11h13p11---9-------------
D-----------------------------------------------------------------------
A-----------------------------------------------------------------------
E-----------------------------------------------------------------------


e-----------------------------------------------------------------------
B-----------------------------------------------------------------------
G-8-8-8h9--9-9-9h11--11-11-11/13--13-13-13-----11h13p11---9-------------
D-----------------------------------------------------------------------
A-----------------------------------------------------------------------
E-----------------------------------------------------------------------


e-----------------------------------------------------------------------
B-----------------------------------------------------------------------
G-8-8-8h9--9-9-9h11--11-11-11/13--13-13-13-----11h13p11---9-------------
D-----------------------------------------------------------------------
A-----------------------------------------------------------------------
E-----------------------------------------------------------------------


e-----------------------------------------------------------------------
B-----------------------------------------------------------------------
G-9h12p9\8---8-----------------8----9----11.----------------------------
D-----------------------------------------------------------------------
A-----------------------------------------------------------------------
E-----------------------------------------------------------------------


Part 5

e---4---4---4---4---4---4---4-------------------------------------------
B-9---9---9---9---9---9---9---9-9p7-------------------------------------
G-----------------------------------------------------------------------
D-----------------------------------------------------------------------
A-----------------------------------------------------------------------
E-----------------------------------------------------------------------


e---4---4---4----------------------4---4---------------------------4-5--
B-7---7---7---7\5----------------5---5---5-8-5h8p5---4-------4-5-7------
G-----------------------------------------------------------------------
D-----------------------------------------------------------------------
A-----------------------------------------------------------------------
E-----------------------------------------------------------------------


e---4---4---4---4---4---4---4-------------------------------------------
B-9---9---9---9---9---9---9---9-9p7-------------------------------------
G-----------------------------------------------------------------------
D-----------------------------------------------------------------------
A-----------------------------------------------------------------------
E-----------------------------------------------------------------------


e---4---4---4----------------------4---4--------------------------------
B-7---7---7---7p5----------------5---5---5-8-5h8p5---4------------------
G-----------------------------------------------------------------------
D-----------------------------------------------------------------------
A-----------------------------------------------------------------------
E-----------------------------------------------------------------------

 

Part 6

e--------4-5-7--9p7-5--7p5-4--5p4----4----------------------------------
B-4-5-7---------------------------7----7-5--7p5-4--5p4------------------
G------------------------------------------------------6----------------
D-----------------------------------------------------------------------
A-----------------------------------------------------------------------
E-----------------------------------------------------------------------


e--------4-5-7--9p7-5--7p5-4--5p4----4----------------------------------
B-4-5-7---------------------------7----7-5--7p5-4--5p4------------------
G------------------------------------------------------6----------------
D-----------------------------------------------------------------------
A-----------------------------------------------------------------------
E-----------------------------------------------------------------------


e--------4-5-7--9p7-5--7p5-4--5p4----4----------------------------------
B-4-5-7---------------------------7----7-5--7p5-4--5p4------------------
G------------------------------------------------------6-5--------------
D-----------------------------------------------------------------------
A-----------------------------------------------------------------------
E-----------------------------------------------------------------------


e--------4-5-7--9p7-5--7p5-4--5p4----4----------------------------------
B-4-5-7---------------------------7----7-5--7p5-4--5p4------------------
G------------------------------------------------------6----------------
D-----------------------------------------------------------------------
A-----------------------------------------------------------------------
E-----------------------------------------------------------------------


e--------4-5-7--9p7-5--7p5-4--5p4----4----------------------------------
B-4-5-7---------------------------7----7-5--7p5-4--5p4------------------
G------------------------------------------------------6----------------
D-----------------------------------------------------------------------
A-----------------------------------------------------------------------
E-----------------------------------------------------------------------


e--------4-5-7--9p7-5--7p5-4--5p4----4----------------------------------
B-4-5-7---------------------------7----7-5--7p5-4--5p4------------------
G------------------------------------------------------6-5--------------
D-----------------------------------------------------------------------
A-----------------------------------------------------------------------
E-----------------------------------------------------------------------


e-----------------------------------------------------------------------
B-----------------------------------------------------------------------
G-5-6-8-6---5-----------------------------------------------------------
D-----------------------------------------------------------------------
A-----------------------------------------------------------------------
E-----------------------------------------------------------------------


Part 7

e-----------------------------------------------------------------------
B--------------------------------4-5-4h5p4---4--------------------------
G-6.----6--------------------4-6----------------------------------------
D------------------------6-7--------------------------------------------
A-----------------------------------------------------------------------
E-----------------------------------------------------------------------


e-----------------------------------------------------------------------
B-------4-5-7-5h7p5---5-------------------7---5-4---5---7/9-------------
G---4-6-----------------------------------------------------------------
D-7---------------------------------------------------------------------
A-----------------------------------------------------------------------
E-----------------------------------------------------------------------


e-----------------------------------------------------------------------
B-------------------------------------------4-5-4h5p4---4---------------
G-8p6-5h8-6.----6-----------------------4-6-----------------------------
D-----------------------------------6-7---------------------------------
A-----------------------------------------------------------------------
E-----------------------------------------------------------------------


e-----------------------------------------------------------------------
B-------4-5-7-5h7p5---5-------------------7---5-4---5---7/9-------------
G---4-6-----------------------------------------------------------------
D-7---------------------------------------------------------------------
A-----------------------------------------------------------------------
E-----------------------------------------------------------------------


Part 8 = Part 3


Part 9

e-4.--4---------4.--4-------------4.--4---------4.--4-------------------
B-5.--5---5---5-----5---5-----5-------5---5---5-----5---5-----5---------
G-8.--8-----8-------8-------8---8-----8-----8-------8-------8---4-------
D-----------------------------------------------------------------------
A-4.--4---------4.--4---------------------------------------------------
E---------------------------------7.--7---------7.--7-------------------


e-4.--4---------4.--4-----------------4-4-4-4-4-4-----------------------
B-5.--5---5---5-----5---5-----5-------4-4-4-4-4-4-----------------------
G-6.--6-----6-------6-------6---6-----6-6-6-6-6-5-----------------------
D-------------------------------------6-6-6-6-6-6-----------------------
A-------------------------------------6-6-6-6-6-6-----------------------
E-5.--5---------5.--5-------------4-------------4-----------------------


Part 10 = Part 5


Part 11

e-----------------------------------------------------------------------
B-----5-----5-------4-5-7-9-7-5-4-----4-----4-------------7p4-----------
G-6-------5-----6-----------------4-------------4---4h6h8-----6p4-------
D-----------------------------------------8-----------------------------
A-----------------------------------------------------------------------
E-----------------------------------------------------------------------


e-4.----4---------------------------------------------------------------
B-5.----5---------------------------------------------------------------
G-6.----6-----------------------------6---6---6-------------------------
D-7.----7---------------------------7---7---7---6-----------------------
A-----------------------------------------------------------------------
E-------8--<-(bass guitar plays that note)------------------------------


Part 12 = Part 4


Part 13 = Part 5


Part 14 (finish)

e--------4-5-7--9p7-5--7p5-4--5p4----4----------------------------------
B-4-5-7---------------------------7----7-5--7p5-4--5p4------------------
G------------------------------------------------------6----------------
D-----------------------------------------------------------------------
A-----------------------------------------------------------------------
E-----------------------------------------------------------------------


e--------4-5-7--9p7-5--7p5-4--5p4----4----------------------------------
B-4-5-7---------------------------7----7-5--7p5-4--5p4------------------
G------------------------------------------------------6----------------
D-----------------------------------------------------------------------
A-----------------------------------------------------------------------
E-----------------------------------------------------------------------


e--------4-5-7--9p7-5--7p5-4--5p4----4----------------------------------
B-4-5-7---------------------------7----7-5--7p5-4--5p4------------------
G------------------------------------------------------6-5--------------
D-----------------------------------------------------------------------
A-----------------------------------------------------------------------
E-----------------------------------------------------------------------


e--------4-5-7--9p7-5--7p5-4--5p4----4----------------------------------
B-4-5-7---------------------------7----7-5--7p5-4--5p4------------------
G------------------------------------------------------6----------------
D-----------------------------------------------------------------------
A-----------------------------------------------------------------------
E-----------------------------------------------------------------------


e--------4-5-7--9p7-5--7p5-4--5p4----4----------------------------------
B-4-5-7---------------------------7----7-5--7p5-4--5p4------------------
G------------------------------------------------------6----------------
D-----------------------------------------------------------------------
A-----------------------------------------------------------------------
E-----------------------------------------------------------------------


e--------4-5-7--9p7-5--7p5-4--5p4----4----------------------------------
B-4-5-7---------------------------7----7-5--7p5-4--5p4----4-------------
G------------------------------------------------------6----6-5--6p4----
D--------------------------------------------------------------------7--
A-----------------------------------------------------------------------
E-----------------------------------------------------------------------


e------------------------------------------4---4.---x-4.---x-7----------
B------------------------------------------5---5.---x-4.---x-5----------
G-4----------------------------------------6---6.---x-5.---x-6----------
D---7-6--7p6-4--6p4----4-------------------6---6.---x-6.---x-6----------
A-------------------7----7p6--7p6-4--6p4---4---4.---x-6.---x-4----------
E----------------------------------------8------------4.---x------------