20140218

STARRY NIGHT TAB (RELAXING ACOUSTIC GUITAR MUSIC MIX BY WAVESDVDCOM)

Somber Guitar - Starry Night is the 6th song in this wonderful mix by 15:45.
Use standard tuning with Capo on the 3rd fret.
See the TAB under the video and enjoy the golden sand on the beach.



STARRY NIGHT TAB

GP5 + GP6 + PDF >> 

Part 1                  - Capo on 3 -

e---------3-----------5-------3-------2-----------3---2-----------------
B---------------------------------------------0-----------0-------------
G-----0-------0-----------0---------------0-------------------0---------
D-5---------------4-----------2-----------------------------------------
A-----------------------------------------------------------------------
E-----------------------------------------------------------------------


e---------0-------------------------------------------------------------
B-0h1-----------------3-------------------1---------------3---0---------
G-------------0-----------0-----------0-----------2---------------------
D-----2---------------0-----------0h2---------0-------0-----------------
A-0---------------2-----------3-----------------------------------------
E-------------------------------------------------2---------------------


e-----------------------------------------------------------------------
B---------0-----------3---------------0-----------0---0-------1---------
G-------------2-------2-------0---------------0-----------0-------------
D-----0---0-----------------------2-------2-------2---0-----------------
A-------------------------------------------------------------3---------
E-3---------------2-------2---0-----------------------------------------



e-------------------------------------0---------------3-----------------
B---------1-------1.----------0h1-----------------------------0---------
G-----0-------------------0---0-----------------------2---2-------------
D-0h2---------2-------------------2-------2---0---0---------------------
A-----------------3.--2-------0-----------------------------------------
E-----------------------------------------------------------------------


e-----------------------------------------------------------------------
B-----------------0.------------------------------0---------------------
G-2-------2-----------2-------0-----------0---------------0-------------
D-----0-------0-----------------------2-------2---2---0-----------------
A-------------------------------------------------------------3---------
E-3---------------3.--2---2---0-----------------------------------------


e-------------------------------------0---------------2-------3---------
B-------------------------3---0h1---------------------------------------
G-----0-------0---0-------------------------------------------0---------
D-2-------0h2---------0-----------2-------2---0---0-------0-------------
A-----------------2-----------0-----------------------------------------
E-----------------------------------------------------------------------




DOWNLOAD THIS TAB IN GUITAR PRO



  • click 'Free Download'
  • add your e-mail address
  • you will get an e-mail with your download links (in a few seconds)
  • download the Guitar Pro 6 tab + GP5 + PDF for free
  • and that's all ...


Guitar Pro: a complete workshop for guitarists at an affordable price