20140219

THE LORD OF THE RINGS THEME TAB (CLASSICAL COVER BY MRDREADSOUL)

MrDreadSoul plays the Lord of the Rings theme on classical guitar.
The original piece was composed by Howard Shore.
See the TAB under the video.



THE LORD OF THE RINGS THEME TAB                   

PDF >>

Part 1

e-1---------1---------10-------------------12---------------------------
B-3-------3---3-------10----10----------10---------------10.------------
G-2-------------------10-12----------12-------------12------------------
D-0-------------------0-------------------------------------------------
A------------------------------------------0----------------------------
E-------------3---------------------------------------------------------


e-----------------------------------------------------------------------
B-6--6--6--6--6--6--8--8--8--8--8--8------------------------------------
G-7-----------------0---------------------------------------------------
D-7---------------------------------------------------------------------
A-5-----------------10--------------------------------------------------
E-----------------------------------------------------------------------


e-5--5--5--5--5--5--7--7--7--7--7--7------------------------------------
B-6-----------------7---------------------------------------------------
G-7-----------------7---------------------------------------------------
D-----------------------------------------------------------------------
A-5---------------------------------------------------------------------
E-------------------7---------------------------------------------------



e-5--5--5--5--5--5------------------------------------------------------
B-6-----------------12--12--12--12--12--12------------------------------
G-7-----------------12--------------------------------------------------
D-------------------12--------------------------------------------------
A-5-----------------10--------------------------------------------------
E-----------------------------------------------------------------------


e-8--8--8--8--8--8--8--8--8--8--8--8------------------------------------
B-----------------------------------------------------------------------
G-----------------------------------------------------------------------
D-----------------------------------------------------------------------
A-0-----------------0---------------------------------------------------
E-----------------------------------------------------------------------


e-5--5--5--5--5--5------------------------------------------------------
B-6-----------------10--10--10--10--10--10------------------------------
G-7-----------------10--------------------------------------------------
D-------------------8---------------------------------------------------
A-5-----------------8---------------------------------------------------
E-----------------------------------------------------------------------


e-6--6--6--6--6--6--6--6--6--6--6--6------------------------------------
B-6-----------------7---------------------------------------------------
G-----------------------------------------------------------------------
D-----------------------------------------------------------------------
A-6-----------------6---------------------------------------------------
E-----------------------------------------------------------------------


e-6--6--6--6--6--6--8--8--8--8--8--8------------------------------------
B-8-----------------8---------------------------------------------------
G-------------------9---------------------------------------------------
D-----------------------------------------------------------------------
A-6---------------------------------------------------------------------
E-------------------8---------------------------------------------------


e-8--8--8--8--8--8--8--8--8--8--8--8--8--8--8--8--8--8------------------
B-8-----------------9---------------------------------------------------
G-10----------------10----------------8---------------------------------
D-----------------------------------------------------------------------
A-8-----------------8-----------------11--------------------------------
E-----------------------------------------------------------------------


e-9--9--9--9--9--9--10--10--10--10--10--10--10--10--10--10--5-----------
B-11----------------11--------------------------------------6-----------
G-----------------------------------------------------------7-----------
D-----------------------------------------------------------0-----------
A-9-----------------9---------------------------------------------------
E-----------------------------------------------------------------------


Part 2

e-------------------------0-----0-0-1-------------1---------------------
B-----3-------3-------3-------------------------------------------------
G-2-2-----2---2---2-2---------------------------------------------------
D-0-------0---0---0-------0---------------------------------------------
A---------------------------------1-------1---1---1-------1-------------
E-----------------------------------------------------------------------


e-------------------------0-----0-----5---------------------------------
B-----3-------3-------3-----------5-6-----------------------------------
G-2-2-------2-2---2-2---------------------------------------------------
D-0---0---0---0---0-------0---------------------------------------------
A-----------------------------------------------------------------------
E---------------------------------6-------6---6-------------------------


e-6-5-3---------1-3-----1-3/5-5-----3-5---------------------1---1---3/5-
B-------------------------------------------1-------1-3---3-------------
G-3-2-0-----------0-------0---2-----0-2-----------3-----------------0---
D-0---------0---3-------3-----------------------------0-----3---3-------
A-------------------------------------0---0-0---------------------------
E-----------------------------------------------------------------------


e-5---------------------------------------------------------------------
B-----2-----------------------------------------------------------------
G-2---------------------------------------------------------------------
D-----------------------------------------------------------------------
A-0---------------------------------------------------------------------
E-----------------------------------------------------------------------


e-------------1---0-----1-----3-----------------------------------------
B-----3-3-3-------------------------3-1-3-1-----3-----------------------
G-2---------------------------------------------------------------------
D-0---------------------3-----------------------------------------------
A-----------------0-----------------------------------------------------
E-----------------------------3-----------3-----3-----------------------


e-------------1---0-----5-----7-----------3-----------------------------
B-----3-3-3-------------------------------------------------------------
G-2---------------------------------------------------------------------
D-0---------------------3-----------------------------------------------
A-----------------0-----------------------------------------------------
E-----------------------------3-----------3-----------------------------


e-6-------------------------------6---------------------------7---------
B-6---------------8---------------6---------------------6-6---8---------
G-----------------6-------------------------------------------9---------
D-----------------------------------------------------------------------
A-------------------------------------------------------------7---------
E-6---------------6---------------6-------------------------------------


Part 3

e-----------------------------------------------------------------------
B-3---------------1-----------1-1-3-----------3-------------------------
G-2---------------2---------------2-------------------------------------
D-0---------------3---------------0-------0-----------------------------
A-----------------------------------------------------------------------
E-----------------1-----------------------------------------------------


e-----------------------------------------1---0-------------------------
B-----------------------------------------------------------------------
G-0-2-3-------2p0---------0-2-0-----------------------------------------
D-----------------3-----------------------------------------------------
A-----1---------------------------------------3-------------------------
E-----------------1-----------3-----------1-----------------------------


e-----------------------------------------------------------------------
B-3---------------1-----------1-1-3-----------3-------------------------
G-2---------------2---------------2-------------------------------------
D-0---------------3---------------0-------0-----------------------------
A-----------------------------------------------------------------------
E-----------------1-----------------------------------------------------


e-----------------------------------------------------------------------
B----------------------------3------------------------------------------
G-0-2-3------2-3-5-------3-5-4------------------------------------------
D----------------3-----------4------------------------------------------
A-----1----------3-----------2------------------------------------------
E-----------------------------------------------------------------------


Part 4

e-0---------------------------------------------------------------------
B-1-------------------------------3---------------3---------------------
G-2-------2---------------5-------4-------4-------4-------4-------------
D-----------------2-------5-----------------------5---------------------
A-0-----------------------3-------------------------------------5-------
E-------------------------------------------------3---------------------


e-0---------------0-------0-------0-------------------------------------
B-1-------3---------------0---------------------------------------------
G-2-----------------------0---------------------------------------------
D---------2-----------------------2-------0-----------------------------
A-0---------------------------------------------------------------------
E-------------------------0---------------------------------------------


e-----------------0-----------------------------------------------------
B-1-------3---------------4---------------------------------------------
G-2-------2---------------4-------4-------------------------------------
D-3---------------3-------4---------------4-----------------------------
A-------------------------2---------------------------------------------
E-1---------------------------------------------------------------------


e-----------------3-------3p2h3---------------5-------------------------
B-5p3-5-----------5---------------------------5-------------------------
G-4-----------0-----------------------0---------------------------------
D-----------------------------------------------------------------------
A-------------------------3---------------------------------------------
E-0---------------------------------------------------------------------


e-5p3h5-------2---------------0-----------------------------------------
B---------------------3---------------0-----------1---------------------
G-------------2-------4-------------------2---4---2---------------------
D-0-----------------------------------------------3---------------------
A-----------------------------------------------------------------------
E-----------------------------0-----------------------------------------


e-----------------------------------------------------------------------
B-0h1p0-----------------------------------------------------------------
G-------2-----------------------5---------------------------------------
D-------0-------4-------0-------7---------------------------------------
A-------------------------------7---------------------------------------
E-------------------------------5---------------------------------------