20140223

WHAT A WONDERFUL WORLD TAB (FINGERSTYLE COVER BY KIMIYOSHI AKIYAMA)

Kimiyoshi Akiyama plays a great fingerstyle guitar cover of What A Wonderful World.
Unfortunately we can't see his left hand ...
He is playing in Dropped D tuning (that is DADGBE)
See the TAB under the video.


WHAT A WONDERFUL WORLD FINGERSTYLE TAB

GP5 + GP6 + PDF >> 

Part 1

e-------------2-----------------------3---------------------------------
B---------3-------3---------------5-------5-----------------------------
G-----2---------------2-------4---------------4-------------------------
D-0-----------------------0---------------------------------------------
A-----------------------------------------------------------------------
D-----------------------------------------------------------------------


e-------------5-----------------------3---------------------------------
B---------7-------7---------------5-------5-----------------------------
G-----6---------------6-------4---------------4-------------------------
D-0-----------------------0---------------------------------------------
A-----------------------------------------------------------------------
D-----------------------------------------------------------------------


e-------------2-----------------------3---------------------------------
B---------3-------3---------------5-------5-----------------------------
G-----2---------------2-------4---------------4-------------------------
D-0-----------------------0---------------------------------------------
A-----------------------------------------------------------------------
D-----------------------------------------------------------------------



e-------------5--------------------------3------------------------------
B---------7-------7---------------5-------------------------------------
G-----6---------------6-------4-------------------------------2---------
D-0-----------------------0---------------------------------------------
A-----------------------------------------------------------------------
D-----------------------------------------------------------------------


Part 2

e-------------------------5---------------------------------------------
B-3---------------3---3---------------2---------------------------------
G---------2-----------------------2-------2-----------------------------
D-----4-------4---------------4---------------4-------------------------
A-----------------------------------------------------------------------
D-0-----------------------4---------------------------------------------


e-------------7---7---7---5---------------------------------------------
B---------0---------------------------2---------------------------------
G-------------0-------------------2-------2-----------------------------
D-----7-----------------------4---------------4-------------------------
A-----------------------------------------------------------------------
D-5-----------------------4---------------------------------------------



DOWNLOAD THE COMPLETE TAB HERE





  • click 'Buy Now' and send $6  (or 'Add to Cart' if you want to buy more tabs)
  • add your e-mail address
  • you will get a confirmation e-mail with your download links (in a few seconds)
  • download the full Guitar Pro 6 tab + GP5 + PDF
  • then start to learn the full song - that's all ...

IF YOU DIDN'T GET YOUR DOWNLOAD LINK, PLEASE CONTACT US HERE >>

SEND YOUR GUITAR TAB REQUEST HERE >>
MORE ON GUITAR TABS A-Z >>

Guitar Pro: a complete workshop for guitarists at an affordable price