20140326

DEXTER THEME TAB (ACOUSTIC GUITAR COVER BY RIES BOSMAN)

Ries Bosman plays his fingerstyle guitar arrangement of the Dexter Theme.
He is using a Capo but his guitar is tuned down so it's actually standard tuning.
See the TAB under the video.


DEXTER THEME TAB

GP5 + GP6 + PDF >>

Part 1

e-12-12-12-12-11--------------------------------------------------------
B----------------13-12--------------------------------------------------
G------------------------------12-12-12-12-11-10-9----------------------
D-----------------------------------------------------------------------
A-----------------------------------------------------------------------
E-----------------------------------------------------------------------


(All bass notes muted)

e-----------------------------------------------------------------------
B-----------------------------------------------------------------------
G-----------------------------------------------------------------------
D-------2---2-------2-----------2---2-------2---------------------------
A-------------2-----------------------2---------------------------------
E-0-----------------------0---------------------------------------------


Part 2   

e-----------------------------------------------------------------------
B-------0.--0-----------0-------------------0---1-----------------------
G-------------------3---------------------------------------------------
D-2-----2---2-------2-----------2---2-------2---------------------------
A-------------------------------------2---------------------------------
E-0-----------0-----------0---------------------------------------------



e-----------------------------------------------------------------------
B-----------------------------------------------------------------------
G-----------------------------------------------------------------------
D-------2---2-------2-----------2---2-------2---------------------------
A-0-----------------------0---------------------------------------------
E-------------0-----------------------0---------------------------------


e-----------------------------------------------------------------------
B-------1.--1-------0---1-------------------1---------------------------
G-----------------------------------------------2-----------------------
D-3-----3---3-------3-----------3---3-------3---------------------------
A-------------------------------------3---------------------------------
E-1-----------1-----------1---------------------------------------------


e-----------------------------------------------------------------------
B-------3.--3-------3---4-----------------------------------------------
G-0---------------------------------------------------------------------
D-------0---0-------0-----------0---0-------0---------------------------
A-------------2-----------------------2---------------------------------
E-3-----------------------3---------------------------------------------




DOWNLOAD THE COMPLETE TAB HERE





  • click 'Buy Now' and send $6  (or 'Add to Cart' if you want to buy more tabs)
  • add your e-mail address
  • you will get a confirmation e-mail with your download links (in a few seconds)
  • download the full Guitar Pro 6 tab + GP5 + PDF
  • then start to learn the full song - that's all ...

IF YOU DIDN'T GET YOUR DOWNLOAD LINK, PLEASE CONTACT US HERE >>

SEND YOUR GUITAR TAB REQUEST HERE >>
MORE ON GUITAR TABS A-Z >>

Guitar Pro: a complete workshop for guitarists at an affordable price