20140305

GUNS 'N' ROSES KNOCKING ON HEAVENS DOOR INTRO TAB (LIVE IN PARIS 1992)

Slash plays a brilliant intro with a 12 stringed guitar. This is a live performance of Knockin' on Heavens Door with Guns'N'Roses in Paris, 1992.
See the TAB of this particular intro (0:00 - 2:53) under the video.
Tune your guitar a half note down to get the right sound.


GUNS 'N' ROSES KNOCKING ON HEAVENS DOOR TAB

PDF >>

Part 1

D#----------------------------------------------------------------------
A#----------------------------------------------------------------------
F#----------------------------------------------------------------------
C#-------------------------------------------------------0h2------------
G#-----7h5-----------------------5h7---------0--------------------------
D#-0---------------------------------3'--3'------3'--0------------------


D#----------------------------------------------------------------------
A#----------------------------------------------------------------------
F#----------------------------------------------------------------------
C#-2-0-------0----------------------------------------------------------
G#-----2-1-2---0h1p0---1---0h1p0---0h1p0---1---0h1p0---0h1p0---1--------
D#-------------------3---3-------3-------3---3-------3-------3---3------


D#----------------------------------------------------------------------
A#----------------------------------------------------------------------
F#---------------------------------------------------0h2---p0-----------
C#---------0-----0---------------------------0---2----------------------
G#-0h1p0h2---2p1---2p1-0---1---0h1p0---0h1h2---2------------------------
D#-----------------------3---3-------3----------------------------------



D#----------------------------------------------------------------------
A#----------------------------------------------------------------------
F#---0h2---0h2---0h2---0h2---0h2p0---2---0h2p0---2----------------------
C#-2-----2-----2-----2-----2-------2---2-------2---2--------------------
G#----------------------------------------------------------------------
D#----------------------------------------------------------------------


D#----------------------------------------------------------------------
A#----------------------------------------------------------------------
F#-2--p0----------------------------------------------------------------
C#-------2.--2--p0-----0-----------------------------------5~-----------
G#-----------------2-0---2p0---1---0h1p0-----------5.--5h7--------------
D#---------------------------3---3-------3p0-3/7------------------------


D#----------------------------------------------------------------------
A#----------------------------------------------------------------------
F#----------------------------------------------------------------------
C#-7--p5.--7--h8p7p5-7--p5----------------------------------------------
G#-------------------------7--/7--/7--/7---5~------------\\\------------
D#----------------------------------------------------------------------


Part 2

D#-----0-----0-----0---------0-------0-------0--------------------------
A#---0-----0-----0---0-----0---0---0---0---0---0------------------------
F#----------------------------------------------------------------------
C#-2-----4-----5-------5\4-------4-------4-------4\2-0h2-0--------------
G#----------------------------------------------------------------------
D#----------------------------------------------------------------------


D#-------------------------0h2---2-----2---2h3---3-----3-2-0-2-0--------
A#-------1-----1-----1-----1---------1---------------1-----------3------
F#-----0-----0-----0-----0----------------------------------------------
C#---2-----2-----2-----2-------2---2-----2-----2---2--------------------
G#-3--------------------------------------------------------------------
D#----------------------------------------------------------------------


D#----------------------------------------------------------------------
A#-1h3p1p0--------------------------------------------------------------
F#---------2(3)(2)p0---2---0--------------------------------------------
C#-------------------2---------0h2p0-----0---------------0h2------------
G#-----------------------------------2-------2--------------------------
D#-----------------------------------------------3'--0---------0--------


D#----------------------------------------------------------------------
A#-8'-------------------------------------------------------------------
F#-----9~----7----------------------------------------------------------
C#---------------9\7p5---7.-7'--5---------------------------------------
G#----------------------------------7.-7p5-----5-h-7-p-5----------------
D#-----------------------------------------7-x--------------------------


D#---------------------------------------------------5------------------
A#-------------------------------------------5h6---6---6---5------------
F#-----------------5h7p5-------5---------5---5---5-------5-------5------
C#---------5---7-----------7-5---5h7p5-------5h7------------------------
G#-----7----------------------------------------------------------------
D#-8--------------------------------------------------------------------


D#----------------------------------------------------------------------
A#----------------------------------------------------------------------
F#----------------------------------------------------------------------
C#-7---5h7p5\4----------------------------------------------------------
G#---------------7-------5-h-7~-----------------------------------------
D#-------------------0--------------------------------------------------


Part 3

D#----------------------------------------------------------------------
A#----------------------------------------------------------------------
F#-0-----0-----0-----0-------0-------0---------------------------0------
C#---4-----4-----4-----4---4---4---4---4---4-4\2-2---2---2h4---4-----4--
G#-----5-----5-----5-----5-------5-------5---------3---3-----3-----3----
D#----------------------------------------------------------------------


D#----------------------------------------------------------------------
A#----------------------------------------------------------------------
F#---------0-----0------------------------------------------------------
C#-4/5---5-----5---5---5------------------------------------------------
G#-----3-----3-------3---3\2-0------------------------------------------
D#----------------------------------------------------------------------


D#-------3-----------3-3-3-3---3-3--------------------------------------
A#-----------3-------3-3-3-3---3-3-------1-----1------------------------
F#-----0-------0-----0-0-0-0---0-0---------0-----0---0---0--------------
C#-----0-------0-----0-0-0-0---0-0-0h2-2-----2-----2---2---2p0----------
G#-------------2-----2-2-2-2---2-2-3---------------------------2-0------
D#-3-------3---3-----3-3-3-3---3-3---------------------------------3-0--


D#---------------------------------------------------1------------------
A#-------------------------------------------------0--------------------
F#-----------------2h3p2p0-----------------------0----------------------
C#-----0---2p0-0-----------2-0-----------------0------------------------
G#---2---2-------2-------------0h1p0---0-----2--------------------------
D#-3---------------------------------3-----3-- LOW ---------------------


Part 4

D#----------------------------------------------------------------------
A#------12------12----12--------------12--------------------------------
F#---------0-------------0-----0----0----0------------------------------
C#-12--------12----12------------12--------12.--------------------------
G#----------------------------------------------------------------------
D#----------------------------------------------------------------------


D#----------------------------------------------------------------------
A#------10------10------10--------10------------------------------------
F#---------0-------0-------0----0----0----------------------------------
C#-11--------11------11------11--------11.------------------------------
G#----------------------------------------------------------------------
D#----------------------------------------------------------------------


D#----------------------------------------------------------------------
A#------10------10------10--------10------------------------------------
F#---------0-------0-------0----0----0----------------------------------
C#-10--------10------10------10--------10.------------------------------
G#----------------------------------------------------------------------
D#----------------------------------------------------------------------


D#----------------------------------------------------------------------
A#-----8-----8-----8-------8--------------------------------------------
F#-------0-----0-----0---0---0------------------------------------------
C#-9-------9-----9-----9-------9.---------------------------------------
G#----------------------------------------------------------------------
D#----------------------------------------------------------------------


Axl starts singing ...   (sounds cool if you play this to start Part 4)

D#----------------------------------------------------------------------
A#------12------12------12--------12------------------------------------
F#---------0----------0---------0----0----------------------------------
C#-12--------12----12--------12--------12.------------------------------
G#----------------------------------------------------------------------
D#----------------------------------------------------------------------


D#----------------------------------------------------------------------
A#------10------10------10--------10------------------------------------
F#---------0----------0---------0----0----------------------------------
C#-11--------11----11--------11--------11.------------------------------
G#----------------------------------------------------------------------
D#----------------------------------------------------------------------


D#----------------------------------------------------------------------
A#------10------10------10--------10------------------------------------
F#---------0----------0---------0----0----------------------------------
C#-10--------10----10--------10--------10.------------------------------
G#----------------------------------------------------------------------
D#----------------------------------------------------------------------


D#----------------------------------------------------------------------
A#-----8-----8-----8-------8--------------------------------------------
F#-------0-------0-------0---0------------------------------------------
C#-9-------9---9-------9-------9.---------------------------------------
G#----------------------------------------------------------------------
D#----------------------------------------------------------------------


slash again ...

D#-------10--------10----10--------10----10-----------------------------
A#----12------12------12------12------12--------------------------------
F#----------0----0----------0----0--------------------------------------
C#-12-------------------------------------------------------------------
G#----------------------------------------------------------------------
D#----------------------------------------------------------------------


D#-----------9--------------9-------------------------------------------
A#------10-----10------10-----10------10.-------------------------------
F#----0----0---------0----0---------0-----------------------------------
C#-11-------------11-------------11-------------------------------------
G#----------------------------------------------------------------------
D#----------------------------------------------------------------------


D#-----------8--------------8-------------------------------------------
A#------10-----10------10-----10------10.-------------------------------
F#----0----0---------0----0---------0-----------------------------------
C#-10-------------10-------------10-------------------------------------
G#----------------------------------------------------------------------
D#----------------------------------------------------------------------


D#---------7------------------------------------------------------------
A#-----8-----8-----8-\--------------------------------------------------
F#---0---0-------0------------------------------------------------------
C#-9-----------9--------------------------------------------------------
G#----------------------------------------------------------------------
D#----------------------------------------------------------------------


D#-------------10-------------------10----------------------------------
A#--------12------12---12------12------12---0---------------------------
F#------0----0-------0-------0----0-------0-----------------------------
C#-/-12-------------------12--------------------------------------------
G#----------------------------------------------------------------------
D#----------------------------------------------------------------------


D#-----------9-------------------9--------------------------------------
A#------10-----10---10------10-----10---0-------------------------------
F#----0----0------0-------0----0------0---------------------------------
C#-11------------------11-----------------------------------------------
G#----------------------------------------------------------------------
D#----------------------------------------------------------------------


D#-----------8-------------------8--------------------------------------
A#------10-----10---10------10-----10---0-------------------------------
F#----0----0------0-------0----0------0---------------------------------
C#-10------------------10-----------------------------------------------
G#----------------------------------------------------------------------
D#----------------------------------------------------------------------


D#---------7-----7-----7------------------------------------------------
A#-----8-----8-----8-----8----------------------------------------------
F#---0---0-----0-----0-----0--------------------------------------------
C#-9--------------------------------------------------------------------
G#----------------------------------------------------------------------
D#----------------------------------------------------------------------


Part 5

D#----------------------------------------------------------------------
A#-----8-----8-----8-------8--------------------------------------------
F#-------0-------0---0---0---0------------------------------------------
C#-8-------8---8-------8-------8.---------------------------------------
G#----------------------------------------------------------------------
D#----------------------------------------------------------------------


D#----------------------------------------------------------------------
A#-----6-----6-----6h8-----6-----8--------------------------------------
F#---------------0-----------0------------------------------------------
C#-7-------7---7-------7-------7----------------------------------------
G#----------------------------------------------------------------------
D#----------------------------------------------------------------------


D#----------------------------------------------------------------------
A#-----6-----6-----6-------6-----6--------------------------------------
F#---------------0---0---0---0------------------------------------------
C#-6-------6---6-------6-------6----------------------------------------
G#----------------------------------------------------------------------
D#----------------------------------------------------------------------


D#----------------------------------------------------------------------
A#---5-------4-------3---------------1----------------------------------
F#-----0-------0-------0----------0-----------------0-------------------
C#-5-----5-4-----4-3-----3-0h2----------2--------0-----0----------------
G#-----------------------------3-----------3--2-------------------------
D#----------------------------------------------------------------------


D#----------------------------------------------------------------------
A#----------------------------------------------------------------------
F#-----0-----0-----0-----0-----0-----------0-------0--------------------
C#---3---3-------3---3-------3---3-3/5---5---5---5---5------------------
G#-1-------1---1-------1---1-------1/3-3-------3------------------------
D#----------------------------------------------------------------------