20140416

CHRISTINA PERRI A THOUSAND YEARS TAB (ACOUSTIC COVER BY NIJAY GABOY)

Nice acoustic guitar cover of 'Christina Perri - A Thousand Years' played by
Ni-jay Gaboy. In the video you can only see 1 beautiful acoustic guitar but on the record sometimes there are more lines. Use standard tuning with Capo on the 3rd.
See the TAB of the acoustic lines below.


A THOUSAND YEARS TAB

PDF >>

Part 1

e-----------------------------------------------------------------------
B-<15>-----------<15>-----------<15>------------------------------------
G-<15>-----------<15>-----------<15>-----------17~----------------------
D-<15>-----------<15>-----------<15>------------------------------------
A-----------------------------------------------------------------------
E-----------------------------------------------------------------------

GTR2
e--6--------------------------------------------------------------------
B--6-------------------------------------------6------------------------
G--3-------------------------------------------5------------------------
D--3--------------------------------------------------------------------
A--5--------------------------------------------------------------------
E--6-------------------------------------------5------------------------


e-----------------------------------------------------------------------
B-<15>-----------<15>-----------<15>------------------------------------
G-<15>-----------<15>-----------<15>-----------17~----------------------
D-<15>-----------<15>-----------<15>------------------------------------
A-----------------------------------------------------------------------
E-----------------------------------------------------------------------


GTR2
e--6-------------------------------------------5------------------------
B--6-------------------------------------------6------------------------
G--3-------------------------------------------5------------------------
D--3-------------------------------------------3------------------------
A--5-------------------------------------------3------------------------
E--3--------------------------------------------------------------------


e-----------------------------------------------------------------------
B--16-------------16-------------16-------------------------------------
G--15-------------15-------------15------------15~----------------------
D--17-------------17-------------17-------------------------------------
A-----------------------------------------------------------------------
E-----------------------------------------------------------------------

GTR2
e--6-------------------------------------------6------------------------
B--6-------------------------------------------6------------------------
G--3-------------------------------------------3------------------------
D--5-------------------------------------------5------------------------
A--6-------------------------------------------6------------------------
E-----------------------------------------------------------------------


e--------------------------------------------5h6-5----------------------
B-<15>-----------<15>------------------------6-------6------------------
G-<15>-----------<15>------------17~------------------------------------
D-<15>-----------<15>---------------------------------------------------
A-----------------------------------------------------------------------
E-----------------------------------------------------------------------

GTR2
e-5---------------------------------------------------------------------
B-6---------------------------------------------------------------------
G-5---------------------------------------------------------------------
D-3---------------------------------------------------------------------
A-3---------------------------------------------------------------------
E-----------------------------------------------------------------------



Part 2

e--------13------------13------------13-----10--------------------------
B-11------------11------------11------------11---13---11----------------
G------3------3-------------3--------------------3----3-----------------
D-----------3--------3----3--------3------3-----------------------------
A-----------------------------------------------------------------------
E-11------------11------------11----------------------------------------

GTR2
e-6---------------------------------------------------------------------
B-6---------------------------------------------------------------------
G-3---------------------------------------------------------------------
D-5---------------------------------------------------------------------
A-6---------------------------------------------------------------------
E-----------------------------------------------------------------------


e--------13-------------13-----10------------11/13---11---10------------
B-11-------------11-------------------11-------------3------------------
G-------------10-------------3------3------3----------------------------
D------3----3---------3----3--------------------------------------------
A-----------------------------------------------------------------------
E-10-------------10------------10---------------------------------------


e-------------------11/13---11-10----------10---------------------------
B-11----11----11--------------------13-----10------10-----11------------
G----12----12----12-----------------x-----------10-------------3--------
D-----------------------------------3-----------------------------------
A-----------------------------------3-----------------------------------
E-3---------------------------------------------------------------------


e--------13------------13------------13-----10--------------------------
B-11------------11------------11-----11----------13---11----------------
G-------------3-------------3-------------3------3----3-----------------
D------3----3--------3----3--------3------------------------------------
A-----------------------------------------------------------------------
E-11------------11------------11----------------------------------------


e--------13-------------13------10-------------11/13---11---10----------
B-11-------------11--------11--------11-----11--------------------------
G-------------10--------------3---------3-------------------------------
D------3----3---------3-------------------------------------------------
A-----------------------------------------------------------------------
E-10-------------10-------------10--------------------------------------


e-------------------11/13---11-10----------10---------------------------
B-11----11----11--------------------13-------------10-----11\-----------
G----12----12----12-----------------x-----------10----------------------
D-----------------------------------3-----------------------------------
A-----------------------------------3-----------------------------------
E-3---------------------------------------------------------------------



Part 3

e-3-----------3-----------3-----------5---------------------------------
B-4-----4---------4-------4-----------4---4-----------------------------
G-3---------3-------3-----3---------3-3-----3---------------------------
D-5-------------------5---5-----5-----5-------5-------------------------
A-3-----------------------3-----------3---------------------------------
E-----------------------------------------------------------------------


e-6-----------------6-----5---------------------------------------------
B-3---------3---------3---6---------------------------------------------
G-3-----3---------------3-5---------------------------------------------
D-3---------------3-------3---------------------------------------------
A-5-----------------------3---------------------------------------------
E-3-----------3---------------------------------------------------------



Part 4

e-------------------------3---------------------------------------------
B-3---6-3-----3---6-3-----------6---------------------------------------
G-3-------3-----------3---------------5---3-----------------------------
D-3---------3-----------3-----3-----3---------3-------------------------
A-x---------------------------------------------------------------------
E-6-----------6-----------6-----------5---------------------------------


e-------------------------3---------------------------------------------
B-3---6-3-----3---6-3-----3-----6---------------------------------------
G---------3-----------3---3-----------5---3---3-5-----------------------
D-----------3-------------3---3-----3-3---------------------------------
A-------------------------5---------------------------------------------
E-3-----------3-----------3---------------------------------------------


e-----------------------------------------------------------------------
B-4---------------3-------------------------3---------------------------
G-------3-----------------------3-----3-5-------5-----------------------
D-----5-----5---------5-------5-----5-----------------------------------
A-6-----------6-----------6---------------------------------------------
E-----------------------------------------------------------------------


e-------------------------------------6p5-------------------------------
B-3h4---------3-----------------6---6-----6---6-------------------------
G-------5---------------------5---5---------5---------------------------
D-3---------3-------------3---------------------------------------------
A-----------------------------------------------------------------------
E-----------------------------------------------------------------------



Part 5

e-------13----13----------13----13----------13----13----13-\\\----------
B-10-11----11----11-10-11----11----11-10-11----11----11-11-\\\----------
G-----------------------------------------------------------------------
D-----------------------------------------------------------------------
A-----------------------------------------------------------------------
E-----------------------------------------------------------------------

GTR2
e-6-----6-6-6-6---6-6-6-6-6---6-6-6-6-6\--x-x-x-x-----------------------
B-6-----6-6-6-6---6-6-6-6-6---6-6-6-6-6\--x-x-x-x-----------------------
G-3-----3-3-3-3---3-3-3-3-3---3-3-3-3-3\--x-x-x-x-----------------------
D-5-----5-5-5-5---5-5-5-5-5---5-5-5-5-5\--x-x-x-x-----------------------
A-6-----6-6-6-6---6-6-6-6-6---6-6-6-6-6\--x-x-x-x-----------------------
E-----------------------------------------------------------------------



Part 6

GTR1 plays Part 2

GTR2 plays this 2x

 'Cadd9'
e-6-----6-6-6-6-----6-6-6-6-----6-6-6-6-----6-6-6-----------------------
B-6-----6-6-6-6-----6-6-6-6-----6-6-6-6-----6-6-6-----------------------
G-3-----3-3-3-3-----3-3-3-3-----3-3-3-3-----3-3-3-----------------------
D-5-----5-5-5-5-----5-5-5-5-----5-5-5-5-----5-5-5-----------------------
A-6-----6-6-6-6-----6-6-6-6-----6-6-6-6-----6-6-6-----------------------
E-----------------------------------------------------------------------

 'Cadd9/B'
e-6-----6-6-6-6-----6-6-6-6-----6-6-6-6-----6-6-6-----------------------
B-6-----6-6-6-6-----6-6-6-6-----6-6-6-6-----6-6-6-----------------------
G-3-----3-3-3-3-----3-3-3-3-----3-3-3-3-----3-3-3-----------------------
D-3-----3-3-3-3-----3-3-3-3-----3-3-3-3-----3-3-3-----------------------
A-5-----5-5-5-5-----5-5-5-5-----5-5-5-5-----5-5-5-----------------------
E-----------------------------------------------------------------------

 'Em7'                   D/F#'       'G'
e-6-----6-6-6-6-----6-6-6-5-----5-5-5-6-----6-6-6-----------------------
B-6-----6-6-6-6-----6-6-6-6-----6-6-6-6-----6-6-6-----------------------
G-3-----3-3-3-3-----3-3-3-5-----5-5-5-3-----3-3-3-----------------------
D-3-----3-3-3-3-----3-3-3-3-----3-3-3-3-----3-3-3-----------------------
A-5-----5-5-5-5-----5-5-5-3-----3-3-3-5-----5-5-5-----------------------
E-3-----3-3-3-3-----3-3-3-5-----5-5-5-6-----6-6-6-----------------------



Part 7

e-----------------------------------------------------------------------
B-------------------------11~---------13~-------------------------------
G-12~---------------------12~---------14~-------------------------------
D-----------------------------------------------------------------------
A-----------------------------------------------------------------------
E-----------------------------------------------------------------------

GTR2
 'Am7'
e-3-----3-3-3-3-----3-3-3-3-----3-3-3-3-----3-3-3-----------------------
B-4-----4-4-4-4-----4-4-4-4-----4-4-4-4-----4-4-4-----------------------
G-3-----3-3-3-3-----3-3-3-3-----3-3-3-3-----3-3-3-----------------------
D-5-----5-5-5-5-----5-5-5-5-----5-5-5-5-----5-5-5-----------------------
A-3-----3-3-3-3-----3-3-3-3-----3-3-3-3-----3-3-3-----------------------
E-----------------------------------------------------------------------


e-----------------------------------------------------------------------
B-15----------------------13~-------------------------------------------
G-15----------------------14~-------------------------------------------
D-----------------------------------------------------------------------
A-----------------------------------------------------------------------
E-----------------------------------------------------------------------

GTR2
 'Em7'                   'D'
e-3-----3-3-3-3-----3-3-3-5---------------------------------------------
B-3-----3-3-3-3-----3-3-3-6---------------------------------------------
G-3-----3-3-3-3-----3-3-3-5---------------------------------------------
D-3-----3-3-3-3-----3-3-3-3---------------------------------------------
A-5-----5-5-5-5-----5-5-5-3---------------------------------------------
E-3-----3-3-3-3-----3-3-3-----------------------------------------------



Part 8

e-----------------------------------------------------------------------
B-3---6-3-----3---6-3-----6/8~--6~--------------------------------------
G---------3-----------3---------------5---3-----------------------------
D-----------3-----------3---------------------3-------------------------
A-----------------------------------------------------------------------
E-6-----------6-----------------------5---------------------------------

GTR2
 'G'                                 'G/F#'
e-6-----6-6-6-6-----6-6-6-6-----6-6-6-6---6-6-6-6-----------------------
B-6-----6-6-6-6-----6-6-6-6-----6-6-6-6---6-6-6-6-----------------------
G-3-----3-3-3-3-----3-3-3-3-----3-3-3-3---3-3-3-3-----------------------
D-3-----3-3-3-3-----3-3-3-3-----3-3-3-3---3-3-3-3-----------------------
A-5-----5-5-5-5-----5-5-5-5-----5-5-5-x---x-x-x-x-----------------------
E-6-----6-6-6-6-----6-6-6-6-----6-6-6-5---5-5-5-5-----------------------


e-----------------------------------------------------------------------
B-3---6-3-----3---6-3-----6/8~--6~--------------------------------------
G---------3-----------3---------------5---3---3-5-----------------------
D-----------3-------------------------3---------------------------------
A-----------------------------------------------------------------------
E-3-----------3---------------------------------------------------------

GTR2
 'Em7'
e-6-----6-6-6-6-----6-6-6-6-----6-6-6-6---6-6-6-6-----------------------
B-6-----6-6-6-6-----6-6-6-6-----6-6-6-6---6-6-6-6-----------------------
G-3-----3-3-3-3-----3-3-3-3-----3-3-3-3---3-3-3-3-----------------------
D-3-----3-3-3-3-----3-3-3-3-----3-3-3-3---3-3-3-3-----------------------
A-5-----5-5-5-5-----5-5-5-5-----5-5-5-5---5-5-5-5-----------------------
E-3-----3-3-3-3-----3-3-3-3-----3-3-3-3---3-3-3-3-----------------------


e-----------------------------------------------------------------------
B-4---------------3-------------------------3---------------------------
G-------3-----------------------3-----3-5-------5-----------------------
D-----5-----5---------5-------5-----5-----------------------------------
A-6-----------6-----------6---------------------------------------------
E-----------------------------------------------------------------------

GTR2
 'Cadd9'
e-6-----6-6-6-6-----6-6-6-6-----6-6-6-6---6-6-6-6-----------------------
B-6-----6-6-6-6-----6-6-6-6-----6-6-6-6---6-6-6-6-----------------------
G-3-----3-3-3-3-----3-3-3-3-----3-3-3-3---3-3-3-3-----------------------
D-5-----5-5-5-5-----5-5-5-5-----5-5-5-5---5-5-5-5-----------------------
A-6-----6-6-6-6-----6-6-6-6-----6-6-6-6---6-6-6-6-----------------------
E-----------------------------------------------------------------------


e-------------------------------------6p5-------------------------------
B-3h4---------3-----------------6---------6-----------------------------
G-------5---------------------5-----5-------5---------------------------
D-3---------3-------------3-------------------3-------------------------
A-----------------------------------------------------------------------
E-----------------------------------------------------------------------

GTR2
 'Dsus4'                 'D'        'Dsus4'
e-6-----6-6-6-6-----6-6-6-5-----5-5-5-6---6-6-6-6-----------------------
B-6-----6-6-6-6-----6-6-6-6-----6-6-6-6---6-6-6-6-----------------------
G-5-----5-5-5-5-----5-5-5-5-----5-5-5-5---5-5-5-5-----------------------
D-3-----3-3-3-3-----3-3-3-3-----3-3-3-3---3-3-3-3-----------------------
A-3-----3-3-3-3-----3-3-3-3-----3-3-3-3---3-3-3-3-----------------------
E-----------------------------------------------------------------------


e-----------------------------------------------------------------------
B-3---6-3-----3---6-3-----6/8~--6~--------------------------------------
G---------3-----------3---------------5---3-----------------------------
D-----------3-----------3---------------------3-------------------------
A-----------------------------------------------------------------------
E-6-----------6-----------------------5---------------------------------

GTR2
 'G'                                 'G/F#'
e-6-----6-6-6-6-----6-6-6-6-----6-6-6-6---6-6-6-6-----------------------
B-6-----6-6-6-6-----6-6-6-6-----6-6-6-6---6-6-6-6-----------------------
G-3-----3-3-3-3-----3-3-3-3-----3-3-3-3---3-3-3-3-----------------------
D-3-----3-3-3-3-----3-3-3-3-----3-3-3-3---3-3-3-3-----------------------
A-5-----5-5-5-5-----5-5-5-5-----5-5-5-x---x-x-x-x-----------------------
E-6-----6-6-6-6-----6-6-6-6-----6-6-6-5---5-5-5-5-----------------------


e-----------------------------------------------------------------------
B-3---6-3-----3---6-3-----6/8~--6~--------------------------------------
G---------3-----------3---------------5---3---3-5-----------------------
D-----------3-------------------------3---------------------------------
A-----------------------------------------------------------------------
E-3-----------3---------------------------------------------------------

GTR2
 'Em7'
e-6-----6-6-6-6-----6-6-6-6-----6-6-6-6---6-6-6-6-----------------------
B-6-----6-6-6-6-----6-6-6-6-----6-6-6-6---6-6-6-6-----------------------
G-3-----3-3-3-3-----3-3-3-3-----3-3-3-3---3-3-3-3-----------------------
D-3-----3-3-3-3-----3-3-3-3-----3-3-3-3---3-3-3-3-----------------------
A-5-----5-5-5-5-----5-5-5-5-----5-5-5-5---5-5-5-5-----------------------
E-3-----3-3-3-3-----3-3-3-3-----3-3-3-3---3-3-3-3-----------------------


e-----------------------------------------------------------------------
B-4---------------3-------------------------3---4-----------------------
G-------3-----------------------3-----3-5-------------------------------
D-----5-----5---------5-------5-----5-----------------------------------
A-6-----------6-----------6---------------------------------------------
E-----------------------------------------------------------------------

GTR2
 'Cadd9'
e-6-----6-6-6-6-----6-6-6-6-----6-6-6-6---6-6-6-6-----------------------
B-6-----6-6-6-6-----6-6-6-6-----6-6-6-6---6-6-6-6-----------------------
G-3-----3-3-3-3-----3-3-3-3-----3-3-3-3---3-3-3-3-----------------------
D-5-----5-5-5-5-----5-5-5-5-----5-5-5-5---5-5-5-5-----------------------
A-6-----6-6-6-6-----6-6-6-6-----6-6-6-6---6-6-6-6-----------------------
E-----------------------------------------------------------------------


e-------------5h6~--------5~----------6---------------------------------
B-6/8~------------------------------------------------------------------
G-----------------------------------------------------------------------
D-----------------------------------------------------------------------
A-----------------------------------------------------------------------
E-----------------------------------------------------------------------

GTR2
 'Dsus4'                 'D'        'Dsus4'
e-6-----6-6-6-6-----6-6-6-5-----5-5-5-6---6-6-6-6-----------------------
B-6-----6-6-6-6-----6-6-6-6-----6-6-6-6---6-6-6-6-----------------------
G-5-----5-5-5-5-----5-5-5-5-----5-5-5-5---5-5-5-5-----------------------
D-3-----3-3-3-3-----3-3-3-3-----3-3-3-3---3-3-3-3-----------------------
A-3-----3-3-3-3-----3-3-3-3-----3-3-3-3---3-3-3-3-----------------------
E-----------------------------------------------------------------------



Part 9 (lead guitar part)

In the background the 2nd guitar plays Part 8 (1x) then Part 7 (2x)



Part 10 (from 3:29 on)

e-----------------------------------------------------------------------
B-<15>---6<18>-<15>-----<15>---6<18>-<15>-------------------------------
G-----------------------------------------------------------------------
D-----------------------------------------------------------------------
A-----------------------------------------------------------------------
E-----------------------------------------------------------------------

GTR2
e---------6---------6---------------------------------------------------
B-------6---------6-----------------------------------------------------
G-----3-----------------------------------------------------------------
D-----------------------------------------------------------------------
A-----------------------------------------------------------------------
E-6-----------6---------------------------------------------------------


e-----------------------------------------------------------------------
B-8<20>-----6<18>--------------------<15>-------------------------------
G---------------------5<17>-----<15>------------------------------------
D-----------------------------------------------------------------------
A-----------------------------------------------------------------------
E-----------------------------------------------------------------------

GTR2
e-------6---------------------------------------------------------------
B-3-------6---------6---------------------------------------------------
G-3---------3---------5-------------------------------------------------
D-3---------------------3-----------------------------------------------
A-5---------------3-----------------------------------------------------
E-6-----------5---------------------------------------------------------


e-----------------------------------------------------------------------
B-<15>---6<18>-<15>-----<15>---6<18>-<15>-------------------------------
G-----------------------------------------------------------------------
D-----------------------------------------------------------------------
A-----------------------------------------------------------------------
E-----------------------------------------------------------------------

GTR2
e-------6-----5-----6---------------------------------------------------
B---------6-----------6-------------------------------------------------
G-----3-----3-----3-----3-----------------------------------------------
D-----------------------------------------------------------------------
A-----------------------------------------------------------------------
E-3---------------------------------------------------------------------


e-----------------------------------------------------------------------
B-8<20>-----6<18>-------------------------------------------------------
G---------------------5<17>-----<15>------------------------------------
D-----------------------------------------------------------------------
A-----------------------------------------------------------------------
E-----------------------------------------------------------------------

GTR2
e-------6-----------6p5-------------------------------------------------
B---------6-------------6-----------------------------------------------
G-----------3-----3-----------------------------------------------------
D-----3-------3---------------------------------------------------------
A-----------------------------------------------------------------------
E-3---------------------------------------------------------------------


e-----------------------------------------------------------------------
B-4<16>-----------<15>---------------------------------------<15>-------
G--------------------------------<15>-----------<15>---5<17>------------
D-----------------------------------------------------------------------
A-----------------------------------------------------------------------
E-----------------------------------------------------------------------

GTR2
e-------3-----------------------------3---------------------------------
B-----------6-------6-----------6---------6---6-------------------------
G-----3---------------3-------------3-------3---3-----------------------
D-----------------------------5-----------------------------------------
A-6-----------6-----------6---------------------------------------------
E-----------------------------------------------------------------------


e-----------------------------------------------------------------------
B-4<16>-----<15>--------------------------------------------------------
G--------------------7<19>----------------------------------------------
D------------------------------------<15>-------------------------------
A-----------------------------------------------------------------------
E-----------------------------------------------------------------------

GTR2
e-------------6-----------------------5h6-5-----------------------------
B-------6-----------6-----------6-------------6-------------------------
G-----------5-----5-----5-----5-----5-----------------------------------
D-3-----------------------3---------------------------------------------
A-----------------------------------------------------------------------
E-----------------------------------------------------------------------