20140401

ERIC CLAPTON OLD LOVE SOLO TAB (LIVE AT ROYAL ALBERT HALL 1990)

Eric Clapton plays Old Love at Royal Albert Hall in 1990.
The original video title says: 'Eric Clapton Old Love 24 Nights Royal Albert Hall 1990'
There are 2 awesome guitar solos by 4:30 and by 8:44 till the end.
See the TAB of these solos under the video.


ERIC CLAPTON OLD LOVE SOLO TAB

PDF >>

Solo by 4:30

e-----------------------------------------------------------------------
B-15(17)---------------~~~~~--------------------------------------------
G-----------------------------------------------------------------------
D-----------------------------------------------------------------------
A-----------------------------------------------------------------------
E-----------------------------------------------------------------------


e-----------------------------------------------------------------------
B-(17)(15)p13-15.--15.--15.--15.--15(17)--------(15)p13-----------------
G-------------------------------------------------------14-14-14--\\\---
D-----------------------------------------------------------------------
A-----------------------------------------------------------------------
E-----------------------------------------------------------------------


e-----------------------------------------------------------------------
B-13---15---13h15p13-12---13---12h13p12---------------------------------
G---------------------------------------14-12-14-12---------------------
D---------------------------------------------------14\12p10------------
A------------------------------------------------------------12-12~-----
E-----------------------------------------------------------------------



e-----------------------------------------------------------------------
B-----------------------------13-12~------------------------------------
G-----------------------------------------------------------------------
D-10.----------------------14-------------------------------------------
A-----------------------------------------------------------------------
E-----------------------------------------------------------------------


e-----------------------------------------------------------------------
B----15p13--------15/17-15h17-15h17p15p13-15-13-15p13-------------------
G-----------------------------------------------------14-12-14.--14~----
D-14-----------14-------------------------------------------------------
A-----------------------------------------------------------------------
E-----------------------------------------------------------------------


e-----------------------------------------------------------------------
B----13-15-13-15h17p15-15-15h17p15-15-15h17p15-15-15h17p15-15-----------
G-14--------------------------------------------------------------------
D-----------------------------------------------------------------------
A-----------------------------------------------------------------------
E-----------------------------------------------------------------------


e-----------------------------------------------------------------------
B-15h17p15-15-15h17p15-15-15h17p15-15-15h17p15-15-15h17p15-15-15-17(20)~
G-----------------------------------------------------------------------
D-----------------------------------------------------------------------
A-----------------------------------------------------------------------
E-----------------------------------------------------------------------


e-----------------------------------------------------------------------
B-17(20)~---------------------------------------------------------------
G-----------------------------------------------------------------------
D-----------------------------------------------------------------------
A-----------------------------------------------------------------------
E-----------------------------------------------------------------------


e-----------------------------------------------------------------------
B-----15-17-15h17p15----15----------------------------------------------
G--17----------------17----17-14.--14-17----14-17-14h17p14----14-14~----
D----------------------------------------17----------------17-----------
A-----------------------------------------------------------------------
E-----------------------------------------------------------------------


e-----------------------------------------------------------------------
B-----------------------------------------------------------------------
G-17---\\\--------------------------------------------------------------
D-----------------------------------------------------------------------
A-----------------------------------------------------------------------
E-----------------------------------------------------------------------


e-----------------------------------------------------------------------
B-17-20(22)~-----20(22)~-----20-17-20-17----17--------------------------
G----------------------------------------19----19(21)(19)p17----19----17
D------------------------------------------------------------19----19---
A-----------------------------------------------------------------------
E-----------------------------------------------------------------------


e-----------------20(22)-------20(22)---20.-17-20-17h20p17--17-17~------
B--------17-20p17-----------------------------------------20---------20\
G-19(21)----------------------------------------------------------------
D-----------------------------------------------------------------------
A-----------------------------------------------------------------------
E-----------------------------------------------------------------------


e---8.--7.--5.----------------------------------------------------------
B---------------8.--5---------------------------------------------------
G-9-------------------7(9).--7-5----------------------------------------
D--------------------------------7~-------------------------------------
A-----------------------------------------------------------------------
E-----------------------------------------------------------------------


e------------------8-10-10/12---10h12p10----10--------------------------
B---------8---8-10-----------------------13----13(15)-------------------
G-5-7-7/9---9-----------------------------------------------------------
D-----------------------------------------------------------------------
A-----------------------------------------------------------------------
E-----------------------------------------------------------------------


e-----------------------------------------------------------------------
B-13(15)---13-10-13-10h13p10----10--------------------------------------
G----------------------------12----12/14-----12-12~-12-\\\--------------
D-----------------------------------------------------------------------
A-----------------------------------------------------------------------
E-----------------------------------------------------------------------


e-----------------------------------------------------------------------
B-----------------------------------------------------------------------
G----12(14)--14.--12(14)--14.--12(14)-14-12----12(14)-14-12----12(14)-14
D-14----------------------------------------14--------------14----------
A-----------------------------------------------------------------------
E-----------------------------------------------------------------------


e-----------------------------------------------------------------------
B-----------------------------------------------------------------------
G-12h14.--12h14.--12h14.--12--------------------------------------------
D---------------------------14-12-10--12--10-12(14)(12)p10h12p10--12--10
A-----------------------------------12--12----------------------12--12--
E-----------------------------------------------------------------------


e-----------------------------------------------------------------------
B-----------------------------------------------------------------------
G------------------------------------------5----------------------------
D--------------------------------------5-7---7~----\\\------------------
A-12-10h12p10----------------3---3-5/7----------------------------------
E------------12-10-\\\-3-h-5---5----------------------------------------


e-------17-20-17-20-17~--------------17-20-20(22)~---20~---17-17~-------
B-17-20------------------------17-20------------------------------------
G-----------------------------------------------------------------------
D-----------------------------------------------------------------------
A-----------------------------------------------------------------------
E-----------------------------------------------------------------------


e-------17-19.--20.--19-20-22.--20-22-22(24)----------------------------
B-17-20-----------------------------------------------------------------
G-----------------------------------------------------------------------
D-----------------------------------------------------------------------
A-----------------------------------------------------------------------
E-----------------------------------------------------------------------


e-------20-22-22(24)--22(24)----------(22)-20h22---20h22p20'------------
B-20-22-----------------------------------------------------------------
G-----------------------------------------------------------------------
D-----------------------------------------------------------------------
A-----------------------------------------------------------------------
E-----------------------------------------------------------------------


e-------17.---20.---17~------17.---------17.---20.---17.----------------
B-20.------------------------------20.---------------------20.----------
G-----------------------------------------------------------------------
D-----------------------------------------------------------------------
A-----------------------------------------------------------------------
E-----------------------------------------------------------------------


e-17.---------17.---------17.---------17.-------------------------------
B-------20.---------20.---------20.---------20.-------------------------
G-----------------------------------------------------------------------
D-----------------------------------------------------------------------
A-----------------------------------------------------------------------
E-----------------------------------------------------------------------


e-17.-------------------------------------------------------------------
B-------20h22p20-17.---------------------17.---------17---20---17~------
G----------------------19.---17.---19.---------19.----------------------
D-----------------------------------------------------------------------
A-----------------------------------------------------------------------
E-----------------------------------------------------------------------


e-------17-19-17h19p17----17--------------------------------------------
B-17-20----------------20----20-17----17--------------------------------
G----------------------------------19----19h20p19p17----19--------------
D----------------------------------------------------19----19-----------
A-----------------------------------------------------------------------
E-----------------------------------------------------------------------


e-----------------------------------------------------------------------
B-------17-20----17----------------------------------17-20p17----17-----
G-19h20-------19----19(20)(19)p17----19----17-19(21)----------19--------
D---------------------------------19----19------------------------------
A-----------------------------------------------------------------------
E-----------------------------------------------------------------------


e-----------------------------------------------------------------------
B-20p17----17-17-20p17----17-17-20p17----17-17-20p17----17-17-----------
G-------19-------------19-------------19-------------19-----------------
D-----------------------------------------------------------------------
A-----------------------------------------------------------------------
E-----------------------------------------------------------------------


e-------------------------------------------20(22)----------------------
B-20p17----17-17---20.--------------------------------------------------
G-------19--------------------------------------------------------------
D-----------------------------------------------------------------------
A-----------------------------------------------------------------------
E-----------------------------------------------------------------------


e-20(22)---20'---17.--17~-----------------------------------------------
B-----------------------------------------------------------------------
G-----------------------------------------------------------------------
D-----------------------------------------------------------------------
A-----------------------------------------------------------------------
E-----------------------------------------------------------------------



Solo by 8:44

e-----------------------------------------------------------------------
B-17(20)----------------17(20).-----------------------------------------
G-----------------------------------------------------------------------
D-----------------------------------------------------------------------
A-----------------------------------------------------------------------
E-----------------------------------------------------------------------


e-----------------------------------------------------------------------
B-(17)(15)p13----15--------p13.------------------------~~~~~~~~~--------
G-------------14--------------------------------------------------------
D-----------------------------------------------------------------------
A-----------------------------------------------------------------------
E-----------------------------------------------------------------------


e-----------------------------------------------------------------------
B-------13'--13'--------------------------------------------------------
G-12-14-------------14.---12h14.---12h14.---12h14.---12h14---12---------
D-----------------------------------------------------------------------
A-----------------------------------------------------------------------
E-----------------------------------------------------------------------


e-----------------------------------------------------------------------
B-----------------------------------------------------------------------
G-----------------------------------------------------------------------
D-14-12-14~~------------------------------------------------------------
A-----------------------------------------------------------------------
E-----------------------------------------------------------------------


e-----------------------------------------------------------------------
B-15(17)(15)p13-15.-15.-13'----13.-13'----------------------------------
G---------------------------14---------14-12----------------------------
D--------------------------------------------14\12p10-12-/-14-10'-------
A-----------------------------------------------------------------------
E-----------------------------------------------------------------------


e-----------------------------------------------------------------------
B-----------------------------------------------------------------------
G-----------------------------------------------------------------------
D-----------------------------------------------------------------------
A-12-10h12~-------------------------------------------------------------
E-----------------------------------------------------------------------


e-----------------------------------------------------------------------
B-----------------------------------------------------------------------
G-----------------------------------------------------------------------
D-----10--12/13.-10--12------10--12/13.-10--12--------------------------
A-12---------------------12---------------------12----------------------
E-----------------------------------------------------------------------


e-----------------------------------------------------------------------
B-----------------------------------------------------------------------
G-----------------------------------------------------------------------
D-12/13.-10h12--10------------------------------------------------------
A-------------------12-p10--12.-12.-10----------------------------------
E---------------------------------------12------------------------------


e-----------------------------------------------------------------------
B-----------------------------------------------------------------------
G-------------------------------------------12.-------------------------
D---------10--12/14.-10--12------10.-12/14------------------------------
A-10--12---------------------12-----------------------------------------
E-----------------------------------------------------------------------


e-----------------------------------------------------------------------
B-----------------------------------------------------------------------
G-12(14)--14.-12(14)--14.-12(14)--14.-12(14)----------------------------
D---------------------------------------------14------------------------
A-----------------------------------------------------------------------
E-----------------------------------------------------------------------


e-----------------------------------------------------------------------
B-----------------------------------------------------------------------
G-12(14)--14.--12(14)------12(14)------12(14)--14.-12(14)---------------
D----------------------14----------14----------------------14-----------
A-----------------------------------------------------------------------
E-----------------------------------------------------------------------


e-----------------------------------------------------------------------
B-----------------------------------------------------------------------
G-12(14)----------------------------------------------------------------
D---------14\12-p10--12--10--12/14--10--12.-----------------------------
A-----------------------------------------------------------------------
E-----------------------------------------------------------------------


e-----------------------------------------------------------------------
B-----------------------------------------------------------------------
G--------12----12-14-12h14p12----12-------------------------------------
D-12/14-----14----------------14----14\12p10----12----10----------------
A--------------------------------------------12----12-------------------
E-----------------------------------------------------------------------


e-----------------------------------------------------------------------
B-----------------------------------------------------------------------
G--------12-12h14p12----12----------------------------------------------
D-12/14--------------14----14\12p10----12----10-------------------------
A-----------------------------------12----12----------------------------
E-----------------------------------------------------------------------


e-----------------------------------------15-17-17/19---17-19-19/20-----
B--------------------12-13-15--13-15-/17--------------------------------
G--------12----12-14----------------------------------------------------
D-12/14-----14----------------------------------------------------------
A-----------------------------------------------------------------------
E-----------------------------------------------------------------------


e-19-20-22---20-22-22(24)~~~--------------------------------------------
B-----------------------------------------------------------------------
G-----------------------------------------------------------------------
D-----------------------------------------------------------------------
A-----------------------------------------------------------------------
E-----------------------------------------------------------------------


e-22.-20.-19.-20.-19h20p19------19.-------------------------------------
B--------------------------22-------22--20------------------------------
G-------------------------------------------21--------------------------
D-----------------------------------------------------------------------
A-----------------------------------------------------------------------
E-----------------------------------------------------------------------


e-----------------------------------------------------------------------
B-20--20--20--20--20--20--20.-----/20--20--20--/20--20--20--/20--20--20.
G-21--21--21--21--21--21--21.-----/21--21--21--/21--21--21--/21--21--21.
D-----------------------------------------------------------------------
A-----------------------------------------------------------------------
E-----------------------------------------------------------------------


e-----------------------------------------------------------------------
B---17-17.--17-17-----------------------------------17-17~--------------
G---19-19.--17-17----17-17-16----16----17----19(21)---------------------
D-----------------19-19-19----19----19----19----------------------------
A-----------------------------------------------------------------------
E-----------------------------------------------------------------------


e-----------------------------------------------------------------------
B-17-18-18(20)(18)(20)---(18)(20)-----18(20)--18.-17.-18.---------------
G-----------------------------------------------------------------------
D-----------------------------------------------------------------------
A-----------------------------------------------------------------------
E-----------------------------------------------------------------------


e-----------------------------------------------------------------------
B-17h18p17--17----------------------------------------------------------
G---------19--19-17h19p17--17-------------------------------------------
D----------------------------19-17h19p17--17----------------------------
A---------------------------------------19--19\17p15--17--15------------
E---------------------------------------------------17--17--17-15h17p15-


e----------------------5.----------5.----------5--7--5------------------
B---------------5.-8'-------5.-8'-------5--8'-----------8'--5-----------
G--------------------------------------------------------------7--5'----
D-----------------------------------------------------------------------
A---3h5-----------------------------------------------------------------
E-----------------------------------------------------------------------


e-----------------------------------------------------------------------
B---------------------------5.------------------------------------------
G---------------------------5.------------------------------------------
D-7-----------5/7.--7~--------------------------------------------------
A----7--5--3------------------------------------------------------------
E-----------------------------------------------------------------------


e-----------------------------------------------------------------------
B---5'------------------------------------------------------------------
G---5'------------------------------------------------------------------
D-7------7-5---5---5---5---5---5---5---5---5---5---5---5---5---6---5h7--
A------------7---7---7---7---7---7---7---7---7---7---7---7---7---7------
E-----------------------------------------------------------------------


e-----------------------------------------------------------------------
B-----------------------------------------------------------------------
G-----------------------------------------------------------------------
D---5---5---------------------------------------------------------------
A-----7---7\5p3---5-5~---3.---------------------------------------------
E---------------5-------------------------------------------------------


e-----------------------------------------------------------------------
B-----------------------------------------------------------------------
G----7(9)-7-5---7~---p5---5-7-7(9)---7-5---x----------------------------
D-7.----------7---------7----------------7------------------------------
A-----------------------------------------------------------------------
E-----------------------------------------------------------------------


e-----------------------------------------------------------------------
B-----------------------------------------------------------------------
G---5-7(9)-7-5---7~---p5---5-7-7(9)-(7)p5---7---5-7---5-7---------------
D-7------------7---------7----------------7---7-----7-------------------
A-----------------------------------------------------------------------
E-----------------------------------------------------------------------


e-----------------------------------------------------------------------
B-----------------------------------------------------------------------
G-5h7p5---5-------------------------------------------------------------
D-------7---7-5h7p5---5-------------------------------------------------
A-------------------7---7\5p3-------------------------------------------
E-----------------------------5.----------------------------------------


e-----8---8---8---7---7---7---7---5---5---7---7---5---5---5---5---5---5-
B-----------------------------------------------------------------------
G-8-9---9---9---7---7---7---7---7---5---5---7---5---5---7---5---7---5---
D-----------------------------------------------------------------------
A-----------------------------------------------------------------------
E-----------------------------------------------------------------------


e---5-------------------------------------------------------------------
B---------8-8-8-8-8-8-\\\-----------------------------------------------
G-7---7/9-9-9-9-9-9-9-\\\-----------------------------------------------
D-----------------------------------------------------------------------
A-----------------------------------------------------------------------
E-----------------------------------------------------------------------


e-----------------------------------------------------------------------
B-10(13)-----10(13)---10---8.-------------------------------------------
G-----------------------------------------------------------------------
D-----------------------------------------------------------------------
A-----------------------------------------------------------------------
E-----------------------------------------------------------------------


e-----------------------------------------------------------------------
B------12.--13.--12-13.--13/15.--13-15.--17-15(17)---------(15)p13~-----
G-14.-------------------------------------------------------------------
D-----------------------------------------------------------------------
A-----------------------------------------------------------------------
E-----------------------------------------------------------------------


e-----------------------------------------------------------------------
B-15.--13h15p13--12.--13-12~---\\\--------------------------------------
G--------------14-------------------------------------------------------
D-----------------------------------------------------------------------
A-----------------------------------------------------------------------
E-----------------------------------------------------------------------


e-----------------------------------------------------------------------
B-12-13-13/15~---13-15-15/17---15-17-15h17p15----15~-----15~------------
G---------------------------------------------17------------------------
D-----------------------------------------------------------------------
A-----------------------------------------------------------------------
E-----------------------------------------------------------------------


e-----------------------------------------------------------------------
B-15-17(20)-------17(20)---17(20)---17-15-17-15h17p15--15---------------
G----------------------------------------------------17--17-14.---------
D-----------------------------------------------------------------------
A-----------------------------------------------------------------------
E-----------------------------------------------------------------------


e-----------------------------------------------------------------------
B-----------------------------------------------------------------------
G-14-17--14h17-14~---\\\------------------------------------------------
D------17---------------------------------------------------------------
A-----------------------------------------------------------------------
E-----------------------------------------------------------------------


e-----------------------------------------------------------------------
B-----------------------------------------------------------------------
G------12--------12(14)---14.--12(14)--------12(14)---14.--12(14)-------
D-14--------14--------------------------14--------------------------14--
A-----------------------------------------------------------------------
E-----------------------------------------------------------------------


e-----------------------------------------------------------------------
B-----------------------------------------------------------------------
G-12(14)-14.-12(14)----12(14)-14.-12(14)----12(14)-14.-12(14)-----------
D-------------------14-------------------14-------------------14--------
A-----------------------------------------------------------------------
E-----------------------------------------------------------------------


e-----------------------------------------------------------------------
B-----------------------------------------------------------------------
G-12(14)-14.-12(14)----12(14)-14.-12(14)----12(14)-14.-12(14)-----------
D-------------------14-------------------14-------------------14--------
A-----------------------------------------------------------------------
E-----------------------------------------------------------------------


e-----------------------------------------------------------------------
B------------13'----15(17)-15-13----15(17)(15)p13----13~---15(17)-------
G-12(14)-14.-----14--------------14---------------14--------------------
D-----------------------------------------------------------------------
A-----------------------------------------------------------------------
E-----------------------------------------------------------------------


e---------------15------15------15------15------15------15--------------
B-15(17)---(15)-15(17)--15(17)--15(17)--15(17)--15(17)--15(17)----------
G-----------------------------------------------------------------------
D-----------------------------------------------------------------------
A-----------------------------------------------------------------------
E-----------------------------------------------------------------------


e-----------------------------------------------------------------------
B-15(17)---15-13----15---p13----13-------13----13-15-(17)(15)p13~---\\\-
G----------------14----------14----14~------14--------------------------
D-----------------------------------------------------------------------
A-----------------------------------------------------------------------
E-----------------------------------------------------------------------


e-20(22)-----20(22)---20-17~-----\\\------------------------------------
B-----------------------------------------------------------------------
G-----------------------------------------------------------------------
D-----------------------------------------------------------------------
A-----------------------------------------------------------------------
E-----------------------------------------------------------------------


e-----------------------------------------------------------------------
B-17h20p17--17-17h20p17--17-17h20p17--17-17h20p17--17-17h20p17--17------
G---------19-----------19-----------19-----------19-----------19--------
D-----------------------------------------------------------------------
A-----------------------------------------------------------------------
E-----------------------------------------------------------------------


e-----------------------------------------------------------------------
B-17h20p17--17----------------------------------------------------------
G---------19--19(21)---19.--17'--14-------------------------------------
D----------------------------------17-14h17-14--------------------------
A---------------------------------------------17-15--17--15-------------
E--------------------------------------------------17--17--17--\\\--///-


e-----------------------------------------------------------------------
B----------------------------------------8---8~---\\\-------------------
G------------------------------7---5-7/9---9----------------------------
D--------------------5-7---5-7---7--------------------------------------
A-----------3-5---/7-----7----------------------------------------------
E-0-3-5---5-------------------------------------------------------------


e-----------------------------------------------------------------------
B-13(15)-----13'----10------10~-----10h13p10----10---10-----------------
G------------------------12------------------12----x------12/14---14~---
D-----------------------------------------------------------------------
A-----------------------------------------------------------------------
E-----------------------------------------------------------------------


e-----------------------------------------------------------------------
B-13-15-15(17)---15(17)-------(15)--------------------------------------
G-----------------------------------------------------------------------
D-----------------------------------------------------------------------
A-----------------------------------------------------------------------
E-----------------------------------------------------------------------


e-----------------------------------------------------------------------
B-13h15p13-15---13h15.--13h15.--13h15.--12h13.--12h13.--12h13.--12h15.--
G-----------------------------------------------------------------------
D-----------------------------------------------------------------------
A-----------------------------------------------------------------------
E-----------------------------------------------------------------------


e-----------------------------------------------------------------------
B-13h15p13-12h13.--12h15.--13h15.--13h15p13--13-------------------------
G------------------------------------------14--14-14~-------------------
D-----------------------------------------------------------------------
A-----------------------------------------------------------------------
E-----------------------------------------------------------------------


e----------15-15-15-15-15-15-15-15-15-/15-15-15-15-15-15----------------
B-13-15/17-17-17-17-17-17-17-17-17-17-/17-17-17-17-17-17----------------
G-----------------------------------------------------------------------
D-----------------------------------------------------------------------
A-----------------------------------------------------------------------
E-----------------------------------------------------------------------


e-/15-15-15-15-15-15-------------15----------15-------15-15-------15-15-
B-/17-17-17-17-17-17-17(20)--------17(20).-----17(20)------17(20)-------
G-----------------------------------------------------------------------
D-----------------------------------------------------------------------
A-----------------------------------------------------------------------
E-----------------------------------------------------------------------


e--------15--------15--------15--------15-17-15h17-15~------------------
B-17(20)----17(20)----17(20)----17(20)----------------------------------
G-----------------------------------------------------------------------
D-----------------------------------------------------------------------
A-----------------------------------------------------------------------
E-----------------------------------------------------------------------


e----15--------15-17-17(19)-----17(19)---17-15--------------------------
B-17----17(20)---------------------------------17-15h17-15-15-15-15~----
G-----------------------------------------------------------------------
D-----------------------------------------------------------------------
A-----------------------------------------------------------------------
E-----------------------------------------------------------------------


e-----------------------------------------------------------------------
B-------15----15~---\\\-------------------------------------------------
G----17----17-----------------------------------------------------------
D-----------------------------------------------------------------------
A-----------------------------------------------------------------------
E-----------------------------------------------------------------------


e-----------------------------------------------------------------------
B-17h18p17-----17h18p17-----17h18p17-----17h18p17-----17h18p17----------
G---------19-----------19-----------19-----------19-----------19--------
D-----------------------------------------------------------------------
A-----------------------------------------------------------------------
E-----------------------------------------------------------------------


e-----------------------------------------------------------------------
B-17h18p17-----17----------------------------------------------------17-
G---------19-----19-17-----17---------------------17--19--17-19(21)-----
D------------------------19--19---17--17-19-19~-----19--19--------------
A-----------------------------------19----------------------------------
E-----------------------------------------------------------------------


e-17----20'--17~---------------17-17-17h19-20.--------------------------
B----17---------------------20------------------------------------------
G-----------------------------------------------------------------------
D-----------------------------------------------------------------------
A-----------------------------------------------------------------------
E-----------------------------------------------------------------------


e------17--17-17h20p17--17-17-17-20p17--17-17-20p17--17-17-17-17~-------
B-17-20--20-----------20--------------20-----------20-------------------
G-----------------------------------------------------------------------
D-----------------------------------------------------------------------
A-----------------------------------------------------------------------
E-----------------------------------------------------------------------


e-20-22-22(24)-----22(24)-----22(24)-----22(24).-22(24).-22(24).-22(24).
B-----------------------------------------------------------------------
G-----------------------------------------------------------------------
D-----------------------------------------------------------------------
A-----------------------------------------------------------------------
E-----------------------------------------------------------------------


e-22(24).---22(24).---22(24).---22(24).---22(24).---22(24).---22(24).---
B-----------------------------------------------------------------------
G-----------------------------------------------------------------------
D-----------------------------------------------------------------------
A-----------------------------------------------------------------------
E-----------------------------------------------------------------------


e-22(24).---22(24).---22(24).---(24)---(22)---------20--19--20--19~-----
B-----------------------------------------------------------------------
G-----------------------------------------------------------------------
D-----------------------------------------------------------------------
A-----------------------------------------------------------------------
E-----------------------------------------------------------------------


e-19-20-19.--17---17-19-17-19-17-19---17h19p17---19-20-20(22)-----------
B-----------------------------------------------------------------------
G-----------------------------------------------------------------------
D-----------------------------------------------------------------------
A-----------------------------------------------------------------------
E-----------------------------------------------------------------------


e-20-22-20h22p20-----22-\\\---------------------------------------------
B-----------------------------------------------------------------------
G-----------------------------------------------------------------------
D-----------------------------------------------------------------------
A-----------------------------------------------------------------------
E-----------------------------------------------------------------------


e-----------------------------------------------------------------------
B-----------------------------------------------------------------------
G-/9-----8-7-5h7~----5---5----------------------------------------------
D----------------------7---7-5h7p5--------------------------------------
A----------------------------------7\5p3-5~-----------------------------
E-----------------------------------------------------------------------


e-----------------------------------------------------------------------
B-----------------------------------------------------------------------
G---------------------------------------------7---5---------------------
D-----------------------------------5-7---5-7---7---7p5---5-------------
A-3~------5-3-5(6)(5)-3---5---3-5/7-----7---------------7---7\5p3-5~----
E-----------------------5---5-------------------------------------------


e-----------------------------------------------------------------------
B------------------------15(17)----------(15)---13----------------------
G--------------------------------------------------14~------------------
D-----------------------------------------------------------------------
A-3-///---\\\-----------------------------------------------------------
E-----------------------------------------------------------------------


e-----------------------------------------------------------------------
B-13----13-15-(17)---(15)---(17)---(15)---13------13--------------------
G----14--------------------------------------14-x----14~----------------
D-----------------------------------------------------------------------
A-----------------------------------------------------------------------
E-----------------------------------------------------------------------


e-----------------------------------------------------------------------
B-13----15(17)-----15-13----15(17)---(15)p13----15----13----------------
G----14------------------14------------------14----14----14-14~---------
D-----------------------------------------------------------------------
A-----------------------------------------------------------------------
E-----------------------------------------------------------------------


e-------------15----15----15----15----15----15\-------------------------
B-13----15/17----17----17----17----17----17-----------------------------
G----14-----------------------------------------------------------------
D-----------------------------------------------------------------------
A-----------------------------------------------------------------------
E-----------------------------------------------------------------------


e-/15-15-15-15-15-15-/15-15-15-15-15-15-/15-15-15-15-\\\----------------
B-/17-17-17-17-17-17-/17-17-17-17-17-17-/17-17-17-17-\\\----------------
G-----------------------------------------------------------------------
D-----------------------------------------------------------------------
A-----------------------------------------------------------------------
E-----------------------------------------------------------------------


e-----------------------------------------------------------------------
B-----------------------------------------------------------------------
G-----------------5-----------------------5-----5-----5-----------------
D-----------------7-----------------------7-----7-----7-----------------
A-----------------7-----------------------7-----7-----7-----------------
E-///---\\\-------------------------------------------------------------