20140421

J RABBIT I'M IN LOVE TAB (ACOUSTIC COVER)


There is a nice cover on friendznet's YouTube channel played by J Rabbit.
The song is called I'm In Love by Narsha. Great job ladies !!!
See the TAB under the video.



J RABBIT I'M IN LOVE TAB

PDF >>

Part 1

e-----0-------2---------------------------------------0-----------------
B-0h2-----2---1-------1-----------4-------------------------------------
G-------------1-------------------4-------4---3-------------------------
D---------------------------------4---4-------3-------------------------
A-0-----------0---------------------------------------------------------
E---------------------------------4-----------3-------------------------


e-------------0-----------0-------------------0---0---------------------
B-----------------0h2---------------------2-------1-----------1---------
G-2-------4-----------1---------------2-----------2---------------------
D-----2-----------------------------------------------------------------
A-----------------0---------------2---------------2---------------------
E-2-------4-------------------------------------------------------------


e-------0---------------------------------------------------------------
B-----1-----------------------------------------------------------------
G---2-------------------------------------------------------------------
D-----------------------------------------------------------------------
A-2---------------------------------------------------------------------
E-----------------------------------------------------------------------



Part 2

e-------------0---------------------------------------------------------
B---------2-----------------------------------4-------------------------
G-----1-----------------------------------4---------------3-------------
D-------------------------------------4-------------------3-------------
A-0---------------------------------------------------------------------
E---------------------------------4-----------------------3-------------


e---------0-------0-----------------------------------------------------
B-2---------------2---------------4-----------4-------------------------
G-2---------------2---------------4-------4-----------------------------
D-2---2---------------------------4---4---------------------------------
A---------------2-------------------------------------------------------
E-2-----------0-------------------0-------------------------------------


e-------------0---------------------------------------------------------
B---------2-----------------------4-----------4-------------------------
G-----1---------------------------4-------4-----------------------------
D---------------------------------4---4---------------------------------
A-0---------------------------------------------------------------------
E---------------------------------4-------------------------------------


e---------0---------------0---------------------------------------------
B-2-----------------------2-------4-----------4-------------------------
G-2-------------------2-----------4-------4-----------------------------
D-2---2---------------------------4---4---------------------------------
A-----------------2-----------------------------------------------------
E-2-------------------------------0-------------------------------------


Part 3

e-------------0---------------------------------------------------------
B-2-----------2-------------------------4-----4-------------------------
G-1-----------1-------------------------4-----4-----------4-------------
D---------------------------------------4-----4-----------3-------------
A-0-----------0---------------------------------------------------------
E---------------------------------4-----------4-----------3-------------


e-------0-----0-------------------------------------------0-------------
B-2-----------2-------------------------------2-------------------------
G-2-----------2-------------------0h1---------2-------4-----------------
D-2-------------------------------------------2-------4-----------------
A-------------2---------------------------------------------------------
E-2-------------------------------0-----------2-------4-----------------


e-----0-----------------------------------------------------------------
B-0h2---------1-------------------4-----------4-------------------------
G-------------1-------------------4-----------4-----------3-------------
D---------------------------------4-----------4-----------3-------------
A-0-----------0-------------------------------4-------------------------
E---------------------------------4-----------------------3-------------


e-------0-----0---------------------------------------------------------
B-2-----------2-------------------------9-----7-----------7-------------
G-2-----------2-------------------------9-----7-----------7-------------
D-2-------------------------------------9-----7-----------6-------------
A-------------2---------------------------------------------------------
E-2-------------------------------9-----------7---------6---------------


Part 4

e-0-----0-----0---------------------------------------------------------
B---------------------------------4-----4-----4-----------4-------------
G-6-----6-----6-------------------4-----4-----4-----------4-------------
D-6-----6-----6-------------------4-----4-----4-----------3-------------
A-----------------------------------------------------------------------
E-5-----5-----5-------------------4-----4-----4-----------3-------------


e-------0---------------------------------------------------------------
B---------------------------------4-----4-----4-----------7-------------
G-2-----------2-------------------4-----4-----4-----------7-------------
D-2-----------2-------------------4-----4-----4-----------6-------------
A-------------2---------------------------------------------------------
E-2-------------------------------0-----------0-----------6-------------


e-------0-----0---------------------------------------------------------
B---------------------------------4-----4-----5-------------------------
G-6-----------5-------------------4-----4-----4-----------3-------------
D-6-----------6-------------------4-----4-----------------3-------------
A---------------------------------------------4-------------------------
E-5-----------5-------------------4-----4-----------------3-------------


e-------0-----0-------------------------------0-------------------------
B-2-----------2---------------------------2---1-------------------------
G-2-----------2-----------------------1-------0-------------------------
D-2-------------------------------------------0-------------------------
A-------------2-------------------0-----------0-------------------------
E-2---------------------------------------------------------------------


e-----------------------------------------------------------------------
B-9-------8-------7-------7---------------------------------------------
G-9-------8-------7-------7---------------------------------------------
D-9-------8-------7-------6---------------------------------------------
A-----------------------------------------------------------------------
E-9-------8-------7-------6---------------------------------------------


Part 5

e-0-----------0---------------------------------------------------------
B---------------------------------4-----4-----4-----------4-------------
G-6-----------6-------------------4-----4-----4-----------4-------------
D-6-----------6-------------------4-----4-----4-----------3-------------
A-----------------------------------------------------------------------
E-5-----------5-------------------4-----4-----4-----------3-------------


e-------0-----0---------------------------------------------------------
B-2-----------2-------------------4-----------4-----------7-------------
G-2-----------2-------------------4-----------4-----------7-------------
D-2-------------------------------4-----4-----4-----------6-------------
A-------------2---------------------------------------------------------
E-2-------------------------------0-----------0-----------6-------------


e-0-----0-----0---------------------------------------------------------
B---------------------------------4-----4-----4-----------4-------------
G-6-----------6-------------------4-----4-----4-----------4-------------
D-6-----------6-------------------4-----4-----4-----------3-------------
A-----------------------------------------------------------------------
E-5-----------5-------------------4-----4-----4-----------3-------------


e-------0-----0---------------------------------------------------------
B-2-----------2---------------------------9-------7-------7-------------
G-2-----------2---------------------------9-------7-------7-------------
D-2---------------------------------------9-------7-------6-------------
A-------------2---------------------------------------------------------
E-2---------------------------------------9-------7-------6-------------


e-0-----0-----0-------------------------0-------------------------------
B---------------------------------4-----------4-----------4-------------
G-6-----------6-------------------4-----------4-----------4-------------
D-6-----------6-------------------4-----------4-----------3-------------
A-----------------------------------------------------------------------
E-5-----------5-------------------4-----------4-----------3-------------


e-------0---------------------------------------------------------------
B-2-----------3-------------------------9-----7-----------7-------------
G-2-----------2-------------------------9-----7-----------7-------------
D-2-------------------------------------9-----7-----------6-------------
A-------------2---------------------------------------------------------
E-2-------------------------------9-----------7-----------6-------------


e-0-----0-----0---------------------------------------------------------
B---------------------------------4-----4-----4-----------4-------------
G-6-----------6-------------------4-----4-----4-----------4-------------
D-6-----------6-------------------4-----4-----4-----------3-------------
A-----------------------------------------------------------------------
E-5-----------5-------------------4-----4-----4-----------3-------------


e-------------0---------------------------------------------------------
B-2-----------2-------------------4-----------4-----------7-------------
G-2-----------2-------------------4-----------4-----------7-------------
D-2-----2-------------------------4-----4-----4-----------6-------------
A-------------2---------------------------------------------------------
E-2-------------------------------0-----------0-----------6-------------


e-0-----0-----0---------------------------------------------------------
B---------------------------------4-----4-----4-----------4-------------
G-6-----------6-------------------4-----4-----4-----------4-------------
D-6-----------6-------------------4-----4-----4-----------3-------------
A-----------------------------------------------------------------------
E-5-----------5-------------------4-----------4-----------3-------------


e-------0-----0---------------------------------------------------------
B-------------2-------------------4-----------4-----------7-------------
G-2-----------2-------------------4-----------4-----------7-------------
D-2-------------------------------4-----4-----4-----------6-------------
A-------------2---------------------------------------------------------
E-2-------------------------------0-----------0-----------6-------------


e-------0-----0---------------------------------------------------------
B---------------------------------------4-----5-----------3-------------
G-6-----------5-------------------------4-----4-----------3-------------
D-6-----------6-------------------------4-----------------3-------------
A---------------------------------------------4-------------------------
E-5-----------5-------------------4-----4-----------------3-------------


e-------0-----0-------------------------------------------0-------------
B-2-----------2---------------------------5-------3---------------------
G-2-----------2-----------------------4---------------2-----------------
D-2---------------------------------------------------------------------
A-------------2-------------------4---------------2---------------------
E-2---------------------------------------------------------------------


e---------0-------------------0-----------------------------------------
B-------------------------1---------------------------------------------
G-----1---------------2-------------------------------------------------
D-----------------------------------------------------------------------
A-0---------------2-----------------------------------------------------
E-----------------------------------------------------------------------


e-------------0-------------------0-------0--------------<12>-----------
B-----------------4-------4-----------4------------------<12>-----------
G---------4-----------4-------4-----------------------------------------
D-----4-----------------------------------------------------------------
A-----------------------------------------------------------------------
E-0---------------------------------------------------------------------