20140421

J RABBIT I'M IN LOVE TAB (ACOUSTIC COVER)


There is a nice cover on friendznet's YouTube channel played by J Rabbit
The song is called I'm In Love by Narsha. Great job ladies!
Download the TAB under the video.



J RABBIT I'M IN LOVE TAB

GP5 + GP6 + PDF >>

Intro

e-------0-------2----(4)---x----------------------------0---------------
B---0h2-----2.--1----------x--------4-----------------------------------
G---------------1----------x--------4-------4.--3-----------------------
D---------------------------------------4-------3-----------------------
A---0-----------0----------x--------------------------------------------
E-----------------------------------4-----------3-----------------------


e---------------0-----------0-------------------0---0-------------------
B-------------------0h2---------------------2-------1-----------1.------
G---2-------4-----------1---------------2-----------2-------------------
D-------2.--------------------------------------------------------------
A-------------------0---------------2---------------2-------------------
E---2-------4-----------------------------------------------------------


e---------0-------------------------------------------------------------
B-------1---------------------------------------------------------------
G-----2-----------------------------------------------------------------
D-----------------------------------------------------------------------
A---2-------------------------------------------------------------------
E-----------------------------------------------------------------------



Verse

e---------------0-------------------------------------------------------
B-----------2-----------------------------------4-----------3-----------
G-------1-----------------------------------4---------------3-----------
D---------------------------------------4-------------------3-----------
A---0-------------------------------------------------------------------
E-----------------------------------4-----------------------3-----------


e-----------0-------0---------------------------------------------------
B---2--------------2----------------4-----------4-----------------------
G---2-------------2-------------------------4---------------------------
D-------2-------------------------------4-------------------------------
A----------------2------------------------------------------------------
E---2-----------0-------------------0-----------------------------------


e---------------0-------------------------------------------------------
B-----------2-----------------------4-----------4-----------------------
G-------1---------------------------4-------4---------------------------
D---------------------------------------4-------------------------------
A---0-------------------------------------------------------------------
E-----------------------------------4-----------------------------------


e-----------0---------------0-------------------------------------------
B---2-----------------------2-------4-----------4-----------------------
G---2-------------------2-----------4-------4---------------------------
D-------2-------------------------------4-------------------------------
A-------------------2---------------------------------------------------
E---2-------------------------------0-----------------------------------


e---------------0-------------------------------------------------------
B---2-----------2-------------------------4-----4-----------4-----------
G---1-----------1-------------------------4-----4-----------4-----------
D-----------------------------------------4-----4-----------3-----------
A---0-----------0-------------------------------------------------------
E-----------------------------------4-----------4-----------3-----------


e---------0-----0-------------------------------------------0-----------
B---2-----------2-------------------------------------------------------
G---2-----------2-------------------0h1---------2-------4---------------
D---2-------------------------------------------2-------4---------------
A---------------2-------------------------------------------------------
E---2-------------------------------0-----------2-------4---------------


e-------0-------2-------------------------------------------------------
B---0h2---------1-------------------4-----------4-----------3-----------
G---------------1-------------------4-----------4-----------3-----------
D-----------------------------------4-----------4-----------3-----------
A---0-----------0-------------------------------4-----------------------
E-----------------------------------4-----------------------3-----------


e---------0-----0-------------------------------------------------------
B---2-----------2-------------------------9-----7-----------7-----------
G---2-----------2-------------------------9-----7-----------7-----------
D---2-------------------------------------9-----7-----------6-----------
A---------------2-------------------------------------------------------
E---2-------------------------------9-----------7---------6-------------


Chorus

e---0-----0.----0---------x---------------------------------------------
B-----------------------------------4-----4.----4-----------4-----------
G---6-----6.----6---------x---------4-----4.----4-----------4-----------
D---6-----6.----6---------x---------4-----4.----4-----------3-----------
A-----------------------------------------------------------------------
E---5-----5.----5---------x---------4-----------4-----------3-----------


e---------0.------------------------------------------------------------
B-----------------------------------4-----------4-----------7-----------
G---2-----------2---------x---------4-----------4-----------7-----------
D---2-----------2---------x---------4-----4.----4-----------6-----------
A---------------2---------x---------------------------------------------
E---2-------------------------------0-----------0-----------6-----------


e---------0.----0---------x---------------------------------------------
B-----------------------------------4-----4.----5-----------3-----------
G---6-----------5---------x---------4-----4.----4-----------3-----------
D---6-----------6---------x---------4-----4.----------------3-----------
A-----------------------------------------------4-----------------------
E---5-----------5---------x---------4-----------------------3-----------


e---------0.----0---------x---------------------0---------x-------------
B---2-----------2---------x-----------------2---1---------x-------------
G---2-----------2---------x-------------1-------0---------x-------------
D---2-------------------------------------------0---------x-------------
A---------------2---------x---------0-----------0---------x-------------
E---2-------------------------------------------------------------------


e-----------------------------------------------------------------------
B---9-------8-------7-------7-------------------------------------------
G---9-------8-------7-------7-------------------------------------------
D---9-------8-------7-------6-------------------------------------------
A-----------------------------------------------------------------------
E---9-------8-------7-------6-------------------------------------------


e---0------x----0-----------x-------------------------------------------
B---------------------------x-------4-----4.----4-----------4-----------
G---6------x----6-----------x-------4-----4.----4-----------4-----------
D---6------x----6-----------x-------4-----4.----4-----------3-----------
A---------------------------x-------------------------------------------
E---5------x----5-----------x-------4-----------4-----------3-----------


e-------0.----0---------------------------------------------------------
B-2-----------2-------------------4-------x---4-----------7-------------
G-2-----------2-------------------4-------x---4-----------7-------------
D-2-------------------------------4-----4-x---4-----------6-------------
A-------------2---------------------------------------------------------
E-2-------------------------------0-------x---0-----------6-------------




DOWNLOAD THIS TAB IN GUITAR PRO



  • click 'Free Download'
  • add your e-mail address
  • you will get an e-mail with your download links (in a few seconds)
  • download the Guitar Pro 6 tab + GP5 + PDF for free
  • and that's all ...


Guitar Pro: a complete workshop for guitarists at an affordable price