20140427

WE ARE ONE (OLE OLA) TAB (THE OFFICIAL 2014 FIFA WORLD CUP SONG)

We Are One by Pitbull is the official 2014 FIFA World Cup song.
See how to play these few chords with a single guitar.
TAB under the video.



WE ARE ONE TAB

PDF >>

  D                                 Bm
e-----------------------------------7-----7-7-7-7-7--7-----7-7-7-7-7----
B-7-----7-7-7-7-7--7-----7-7-7-7-7--7-----7-7-7-7-7--7-----7-7-7-7-7----
G-7-----7-7-7-7-7--7-----7-7-7-7-7--7-----7-7-7-7-7--7-----7-7-7-7-7----
D-7-----7-7-7-7-7--7-----7-7-7-7-7--9-----9-9-9-9-9--9-----9-9-9-9-9----
A-5-----5-5-5-5-5--5-----5-5-5-5-5--9-----9-9-9-9-9--9-----9-9-9-9-9----
E-----------------------------------7-----7-7-7-7-7--7-----7-7-7-7-7----
          x x x x          x x x x          x x x x          x x x x

  E                                 C#
e-----------------------------------------------------------------------
B-9-----9-9-9-9-9--9-----9-9-9-9-9--6-----6-6-6-6-6--6-----6-6-6-6-6----
G-9-----9-9-9-9-9--9-----9-9-9-9-9--6-----6-6-6-6-6--6-----6-6-6-6-6----
D-9-----9-9-9-9-9--9-----9-9-9-9-9--6-----6-6-6-6-6--6-----6-6-6-6-6----
A-7-----7-7-7-7-7--7-----7-7-7-7-7--4-----4-4-4-4-4--4-----4-4-4-4-4----
E-----------------------------------------------------------------------
          x x x x          x x x x          x x x x          x x x x

  Bm                                F#m
e-7-----7-7-7-7-7--7-----7-7-7-7-7--------------------------------------
B-7-----7-7-7-7-7--7-----7-7-7-7-7--10----1010101010-10----1010101010---
G-7-----7-7-7-7-7--7-----7-7-7-7-7--11----1111111111-11----1111111111---
D-9-----9-9-9-9-9--9-----9-9-9-9-9--11----1111111111-11----1111111111---
A-9-----9-9-9-9-9--9-----9-9-9-9-9--9-----9-9-9-9-9--9-----9-9-9-9-9----
E-7-----7-7-7-7-7--7-----7-7-7-7-7--------------------------------------
          x x x x          x x x x          x x x x          x x x x



  D                                 E
e-----------------------------------------------------------------------
B-7-----7-7-7-7-7--7-----7-7-7-7-7--9-----9-9-9-9-9--9-----9-9-9-9-9----
G-7-----7-7-7-7-7--7-----7-7-7-7-7--9-----9-9-9-9-9--9-----9-9-9-9-9----
D-7-----7-7-7-7-7--7-----7-7-7-7-7--9-----9-9-9-9-9--9-----9-9-9-9-9----
A-5-----5-5-5-5-5--5-----5-5-5-5-5--7-----7-7-7-7-7--7-----7-7-7-7-7----
E-----------------------------------------------------------------------
          x x x x          x x x x          x x x x          x x x x



The Whistle part

e-----------9---12---9-----------9--------------------------------------
B-10---12----------------12---10----------------------------------------
G-----------------------------------------------------------------------
D-----------------------------------------------------------------------
A-----------------------------------------------------------------------
E-----------------------------------------------------------------------


e-----------9---12---9--------------------------------------------------
B-10---12----------------12---10-12-------------------------------------
G-----------------------------------------------------------------------
D-----------------------------------------------------------------------
A-----------------------------------------------------------------------
E-----------------------------------------------------------------------


e-----------9---12---9--------------------------------------------------
B-10---12----------------12---10-12-------------------------------------
G-----------------------------------------------------------------------
D-----------------------------------------------------------------------
A-----------------------------------------------------------------------
E-----------------------------------------------------------------------


e-----------9---12---9--------------------------------------------------
B-10---12----------------12---10-10-------------------------------------
G-----------------------------------------------------------------------
D-----------------------------------------------------------------------
A-----------------------------------------------------------------------
E-----------------------------------------------------------------------