20140523

AVICII HEART UPON MY SLEEVE TAB


This short video shows the guitar parts of Heart Upon My Sleeve by Avicii.
Use standard tuning and a CAPO on the 1st fret.
See the TAB under the video.



AVICII HEART UPON MY SLEEVE TAB

PDF >>

Part 1

e-----------------------------------------------------0---0-------------
B---------0h1p0---------------------------0-----0-----5---3-------------
G-----0---------2-0-----0---0h2p0---0-------------------------2---0-----
D---2-----------------0-----------4-----1-----1-------------------------
A-3-----3-----------------------------2-----2-----2---------------------
E-------------------3-----3-----------------------------0---0-2---------


e-----------------------------------------------------------------------
B---------0h1p0---------------------------0-----0---------0-------------
G-----0---------2-0-----0---0h2p0---0-----------------------------------
D---2-----------------0-----------4-----1-----1-----1---1-----1.--------
A-3-----3-----------------------------2-----2-----2---2-----2-----------
E-------------------3-----3---------------------------------------------


Part 2

e-------------------------------------------------------------0---------
B---------0---------------0---------------0---------------3-------------
G-----0---------------0---------------0---------------2-----------------
D---2---------------2---------------0---------------0-------------------
A-----------------3-----3-----------------------------------------------
E-0-----0-------------------------3-----3---------2-----2---------------



e-----------------------------------------------------------------------
B---------0---------------0---------------0---------------3-------------
G-----0---------------0---------------0---------------2-----------------
D---2---------------2---------------0---------------0-------------------
A-----------------3-----3-----------------------------------------------
E-0-----0-------------------------3-----3---------2-----2---------------


Part 3

e-----------------------------------------------------------------------
B-----------------------------------------------------------------------
G-----------------------------------------------------------------------
D-----2-----5-----4-------------------2-----5-----4---------------------
A-----------------------5-----2-3-----------------------5-----2-3p2-----
E-0-0---0-0---0-0---0-0---0-0-----0-0---0-0---0-0---0-0---0-0-----------


e-----------------------------------------------------------------------
B-----------------------------------------------------------------------
G-----------------------------------------------------------------------
D-----2-----5-----4-------------------2-----5-----4---------------------
A-----------------------5-----2-3-----------------------5-----2-3p2-----
E---0---0-0---0-0---0-0---0-0-----0-0---0-0---0-0---0-0---0-0-----------