20140503

CAROLE KING YOU'VE GOT A FRIEND TAB (ACOUSTIC INSTRUMENTAL COVER BY PHIL MCGARRICK)

Very nice instrumental guitar cover of Carole King's song You've Got A Friend.
Phil McGarrick plays this version based on James Taylor's record from 1971.
See the TAB of this cool acoustic guitar version under the video.



YOU'VE GOT A FRIEND TAB

PDF >>

Part 1

e-----------------------------------------------------------------------
B-----------------------------------------------------------------------
G-2---4---4/6~-------------------6---6---6(7)---6~----------------------
D-----------------------------------------------------------------------
A-----------------------------------------------------------------------
E-----------------------------------------------------------------------


e-----------------------------------------------------------------------
B-7---9---9(10)------------------(10)---(10)(9)---7---------------------
G-------------------------------------------------------6~--------------
D-----------------------------------------------------------------------
A-----------------------------------------------------------------------
E-----------------------------------------------------------------------


e-----------------------------------------------------------------------
B-----------------------------------------------------------------------
G-4---6---7~------7~------7~--------------------------------------------
D-----------------------------------------------------------------------
A-----------------------------------------------------------------------
E-----------------------------------------------------------------------



e-----------------------------------------------------------------------
B-7-------5-----------5---5h6h7---2~------------------------------------
G-----------------6-----------------------------------------------------
D-----------------------------------------------------------------------
A-----------------------------------------------------------------------
E-----------------------------------------------------------------------


e-----------------------------------------------------------------------
B-2h3p2-----2---2~---------------2---3p2---2---2~-----------------------
G-----------------------------------------------------------------------
D-----------------------------------------------------------------------
A-----------------------------------------------------------------------
E-----------------------------------------------------------------------


e-----------------------------------------------------------------------
B-2---/-10-------10---9---7--\---2~-------------------------------------
G-----------------------------------------------------------------------
D-----------------------------------------------------------------------
A-----------------------------------------------------------------------
E-----------------------------------------------------------------------


e-----------------------------------------------------------------------
B-----2---3~------3~------3~-------------7-\-5-------2---5---2----------
G-4-----------------------------------------------------------------4~--
D-----------------------------------------------------------------------
A-----------------------------------------------------------------------
E-----------------------------------------------------------------------


e-----------------------------------------------------------------------
B--------------7~------7---5h7p5---3h5p3--------------------------------
G-----------------------------------------------------------------------
D-----------------------------------------------------------------------
A-----------------------------------------------------------------------
E-----------------------------------------------------------------------


Part 2

e-----------------------------------------------------------------------
B-2---3-/-5---5~--------------2-h-3-p-2---5~----------------------------
G-----------------------------------------------------------------------
D-----------------------------------------------------------------------
A-----------------------------------------------------------------------
E-----------------------------------------------------------------------


e-----------------------------------------------------------------------
B-3---5---5/7-----------------7(8)---7-------5-------7~-----------------
G------------------------------------------------7----------------------
D-----------------------------------------------------------------------
A-----------------------------------------------------------------------
E-----------------------------------------------------------------------


e-------5---------------------------------------------------------------
B-5h6h7---------5h6h7---5~-------------5-h-7---5------------------------
G--------------------------------------6-h-7---6------------------------
D-----------------------------------------------------------------------
A-----------------------------------------------------------------------
E-----------------------------------------------------------------------


e-----------------------------------------------------------------------
B-5---5-h-7---5---5-\-3-------------------------------------------------
G-6---6-h-7---6---6-\-4-------------------------------------------------
D-----------------------------------------------------------------------
A-----------------------------------------------------------------------
E-----------------------------------------------------------------------


e-----------------------------------------------------------------------
B-5/7-------7---5h7p5---3h5p3---2h3p2-----------------------------------
G---------------------------------------4~------------------------------
D-----------------------------------------------------------------------
A-----------------------------------------------------------------------
E-----------------------------------------------------------------------


e-----------------------------------------------------------------------
B-------5---5-------5---2---5---5/7-------5~----------------------------
G-4/6-------------------------------------------------------------------
D-----------------------------------------------------------------------
A-----------------------------------------------------------------------
E-----------------------------------------------------------------------


e-------------5---5-------5-------5---7(8)(7)---5~----------------------
B-5---5h6h7-----------7-------7-----------------------------------------
G-----------------------------------------------------------------------
D-----------------------------------------------------------------------
A-----------------------------------------------------------------------
E-----------------------------------------------------------------------


e-------5---7/9-----7-----7\5-------------------------------------------
B-5h6h7---------------------------7---5-\-3-----------------------------
G---------------------------------------------4.------2-----------------
D-----------------------------------------------------------------------
A-----------------------------------------------------------------------
E-----------------------------------------------------------------------


e-----------------------------------------------5-----------------------
B---------2-----------------2-------2---3-------------------------------
G-4---2-------------------------4---------------------------------------
D-----------------------------------------------------------------------
A-----------------------------------------------------------------------
E-----------------------------------------------------------------------


e-5---------------------------------------------------------------------
B-5h7--p5-------5~------------------------------------------------------
G-----------7-----------------------------------------------------------
D-----------------------------------------------------------------------
A-----------------------------------------------------------------------
E-----------------------------------------------------------------------


Part 3

e-----------------------------------------------------------------------
B-----------------------------------------------------------------------
G-----------------------------------------------------------------------
D-----------------------------------------------------------------------
A-0---2---4------------------4---4---4/5-----4--------------------------
E-----------------------------------------------------------------------


e-----------------------------------------------------------------------
B-----------------------------------------------------------------------
G-----1---2------------------2---1h2p1----------------------------------
D-4------------------------------------4--------------------------------
A----------------------------------------------4------------------------
E-----------------------------------------------------------------------


e-----------------------------------------------------------------------
B-----------------------------------------------------------------------
G-----------------------------------------------------------------------
D-----------------------------------4---4---2-----------2---2--h4p2-----
A-2---4---5~------5~------5~------------------------4---------------4~--
E-----------------------------------------------------------------------


e-----------------------------------------------------------------------
B-----------------------------------------------------------------------
G-----------------------------------------------------------------------
D-----------------------------------------------------------------------
A-4h5p4-----4---4~------4---5-------4---4~------------------------------
E-----------------------------------------------------------------------


e-----------------------------------------------------------------------
B-----------------------------------------------------------------------
G---------1---2~------2---1h2p1-----------------------------------------
D-4-----------------------------4---------------------------------------
A---------------------------------------4~------------------------------
E-----------------------------------------------------------------------


e-----------------------------------------------------------------------
B-----------------------------------------------------------------------
G-----------------------------------------------------------------------
D-----------------------------------------------------------------------
A-2---4---4/5~------5~------5~------------------------------------------
E-----------------------------------------------------------------------


e-----------------------------------------------------------------------
B-----------------------------------------------------------------------
G-----------------------------------------------------------------------
D-4---2-------2---------------------------------------------------------
A---------4-----------4-------2-----------------------------------------
E-----------------------------------------------------------------------


e-----------------------------------------------------------------------
B-2---------------------------------------------------------------------
G---------4---2-\-1-----------------------------------------------------
D---------------------4---2---------------------------------------------
A-----------------------------5-----------------------------------------
E-----------------------------------------------------------------------


Part 4

e-----------------------------------------------------------------------
B-------------3-h-5--------------------2---3---2---3/5~-----------------
G-----------------------------------------------------------------------
D-----------------------------------------------------------------------
A-4---5-----------------------------------------------------------------
E-----------------------------------------------------------------------


e-----------------------------------------------------------------------
B-3---5---5/7-----------------7(8)---7-------5-------7~-----------------
G------------------------------------------------7----------------------
D-----------------------------------------------------------------------
A-----------------------------------------------------------------------
E-----------------------------------------------------------------------


e-------5---------------------------------------------------------------
B-5h6h7---------5h6h7---5--------------5-h-7---5------------------------
G--------------------------------------6-h-7---6------------------------
D-----------------------------------------------------------------------
A-----------------------------------------------------------------------
E-----------------------------------------------------------------------


e-----------------------------------------------------------------------
B-5---5-h-7---5---5-\-3-------------------------------------------------
G-6---6-h-7---6---6-\-4-------------------------------------------------
D-----------------------------------------------------------------------
A-----------------------------------------------------------------------
E-----------------------------------------------------------------------


e-----------------------------------------------------------------------
B-5/7-------7---5h7p5---3h5p3---2h3p2-----------------------------------
G---------------------------------------4~------------------------------
D-----------------------------------------------------------------------
A-----------------------------------------------------------------------
E-----------------------------------------------------------------------


e-----------------------------------------------------------------------
B-------5---5-------5---2---5---5/7-------5~----------------------------
G-4/6-------------------------------------------------------------------
D-----------------------------------------------------------------------
A-----------------------------------------------------------------------
E-----------------------------------------------------------------------


e-------------5---5-------5-------5---7(8)(7)---5~----------------------
B-5---5h6h7-----------7-------7-----------------------------------------
G-----------------------------------------------------------------------
D-----------------------------------------------------------------------
A-----------------------------------------------------------------------
E-----------------------------------------------------------------------


e-------5---7/9-----7-----7\5-------------------------------------------
B-5h6h7---------------------------7---5-\-3-----------------------------
G---------------------------------------------4.------2-----------------
D-----------------------------------------------------------------------
A-----------------------------------------------------------------------
E-----------------------------------------------------------------------


Part 5

e-----------------------------------------------------------------------
B-2-h-3-p-2---3---2---3~--------3-/-5---3---2---3~----------------------
G-----------------------------------------------------------------------
D-----------------------------------------------------------------------
A-----------------------------------------------------------------------
E-----------------------------------------------------------------------


e-----------------------------------------------------------------------
B-3---2---5---5---5~------5-/-7---5~------------------------------------
G-----------------------------------------------------------------------
D-----------------------------------------------------------------------
A-----------------------------------------------------------------------
E-----------------------------------------------------------------------


e-----------5~----------------------------------------------------------
B-5---5h6h7----------------------3/5-----3~-----------------------------
G------------------------2---2------------------------------------------
D-----------------------------------------------------------------------
A-----------------------------------------------------------------------
E-----------------------------------------------------------------------


e---------------------------------4---5---4-----h5p4--------------------
B-2-h-3---2-------5-/-7---5--------------------------------7---\--------
G-----------------------------------------------------------------------
D-----------------------------------------------------------------------
A-----------------------------------------------------------------------
E-----------------------------------------------------------------------


e-----------------------------------------------------------------------
B-2-------------2-----5-2-----------------------------------------------
G-------4-2---------------------4~--------------------------------------
D-----------------------------------------------------------------------
A-----------------------------------------------------------------------
E-----------------------------------------------------------------------


Part 6

e-----------------------------------------------------------------------
B-2---3-/-5---5~--------------2-h-3-p-2---5~----------------------------
G-----------------------------------------------------------------------
D-----------------------------------------------------------------------
A-----------------------------------------------------------------------
E-----------------------------------------------------------------------


e-----------------------------------------------------------------------
B-3---5---5/7-----------------7(8)---7-------5-\-3---5-/-7~-------------
G-----------------------------------------------------------------------
D-----------------------------------------------------------------------
A-----------------------------------------------------------------------
E-----------------------------------------------------------------------


e-------5---------------------------------------------------------------
B-5h6h7---------5h6h7---5~--------------2h3p2---------------------------
G-----------------------------------------------------------------------
D-----------------------------------------------------------------------
A-----------------------------------------------------------------------
E-----------------------------------------------------------------------


e-----------------------------------------------------------------------
B-2---2-h-3-p-2---------------------------------------------------------
G-----------------4~----------------------------------------------------
D-----------------------------------------------------------------------
A-----------------------------------------------------------------------
E-----------------------------------------------------------------------


e-----------------------------------------------------------------------
B-5/7-------5h7p5---3h5p3---2h3p2---------------------------------------
G-----------------------------------4~----------------------------------
D-----------------------------------------------------------------------
A-----------------------------------------------------------------------
E-----------------------------------------------------------------------


e-----------------------------------------------------------------------
B-------5---5-------5---2---5---5/7-------5~----------------------------
G-4/6-------------------------------------------------------------------
D-----------------------------------------------------------------------
A-----------------------------------------------------------------------
E-----------------------------------------------------------------------


e-------------5---5-------5-------5---7(8)(7)---5~----------------------
B-5---5h6h7-----------7-------7-----------------------------------------
G-----------------------------------------------------------------------
D-----------------------------------------------------------------------
A-----------------------------------------------------------------------
E-----------------------------------------------------------------------


e-------5---7/9-----7-----7\5-------------------------------------------
B-5h6h7---------------------------7---5-\-3-----------------------------
G---------------------------------------------4.------2---------h4------
D------------------------------------------------------------------2----
A-----------------------------------------------------------------------
E-----------------------------------------------------------------------


Part 7

e-------------------------------------------5~--------------------------
B-2~--------------------2-------2---3-----------------------------------
G---------------------------4-------------------------------------------
D-----------------------------------------------------------------------
A-----------------------------------------------------------------------
E-----------------------------------------------------------------------


e-5---------------------------------------------------------------------
B-5h7--p5-------5~-----------------------3-p-2-------2~-----------------
G-----------7------------------------------------4----------------------
D-----------------------------------------------------------------------
A-----------------------------------------------------------------------
E-----------------------------------------------------------------------


e-----------------------------------------------------------------------
B-----------------------------------------------------------------------
G-4-p-2-------2~--------------------------------------------------------
D---------4-------------------------2h4---2-------2~--------------------
A---------------------------------------------5-------------------------
E-----------------------------------------------------------------------


e-----------------------------------------------------------------------
B-----------------------------------------------------------------------
G-----------------------------------------------------------------------
D------------------------------2-------4-----2--------------------------
A-0----------------------------------------------2h4--p2---0------------
E-----------------------------------------------------------------------


e-----------------------------------------------------------------------
B-2---------------------------------------------------------------------
G-2---------------------------------------------------------------------
D-2---------------------------------------------------------------------
A-0---------------------------------------------------------------------
E-----------------------------------------------------------------------