20140531

ERIC CLAPTON LAYLA TAB (LIVE IN HYDE PARK 1996)


The 1996 Hyde Park live acoustic version of Layla by Eric Clapton.
See the TAB of the complete song - with all the solos - below.



ERIC CLAPTON LAYLA TAB

PDF >>
 
Intro solo

e-----------------------------------------------------------------------
B-8/10~---10~-----------------------------------------------------------
G-----------------------------------------------------------------------
D-----------------------------------------------------------------------
A-----------------------------------------------------------------------
E-----------------------------------------------------------------------


e-----------------------------------------------------------------------
B-8h10p8-8-10-8h10p8-6-8-6h8---6.--5~-----------------------------------
G-----------------------------------------------------------------------
D-----------------------------------------------------------------------
A-----------------------------------------------------------------------
E-----------------------------------------------------------------------


e-----------------------------------------------------------------------
B-5-6-6/8---6-5---------------------------------------------------------
G---------------7-5---7---5---7~----------------------------------------
D-------------------7-------7-------------------------------------------
A-----------------------------------------------------------------------
E-----------------------------------------------------------------------



e----------------------------------10-9-10~--------10/12-12/13-12~------
B-----5-6-8-8/10~-------------------------------------------------------
G---7-------------------------------------------------------------------
D-7---------------------------------------------------------------------
A-----------------------------------------------------------------------
E-----------------------------------------------------------------------


e----10-12.--13.--12-13.--15.--13-15.--13h15p13---12-13-12h13p12--------
B-10--------------------------------------------------------------------
G-----------------------------------------------------------------------
D-----------------------------------------------------------------------
A-----------------------------------------------------------------------
E-----------------------------------------------------------------------


e-10-12-10h12---10------------------------------------------------------
B-----------------13-10--10-----------13--15-13-------------------------
G----------------------12--12/14~-------14-----14\12---10--12--10-12.---
D--------------------------------------------------------12--12---------
A-----------------------------------------------------------------------
E-----------------------------------------------------------------------


e-----------------------------------------------------------------------
B-10h11p10--10----------------------------------------------------------
G---------12--12-10--10h12---10-----------------------------------------
D------------------12----------12-10h12---10----------------------------
A-------------------------------------------12-10-8----8h10-8~----------
E---------------------------------------------------10------------------


e-----------------------------------------------------------------------
B-------5-6.--5h6---5---5---5~--6.--------------------------------------
G-----7---------------7---7---------------------------------------------
D-5/7-------------------------------------------------------------------
A-----------------------------------------------------------------------
E-----------------------------------------------------------------------


e-----------------------------------------------------------------------
B-----5-6.--8.--6-8.--6h8p6.--------------------------------------------
G---7-------------------------------------------------------------------
D-7---------------------------------------------------------------------
A-----------------------------------------------------------------------
E-----------------------------------------------------------------------


e------------------------8-10--8h10--8-10--8-10---8-10/13-----10~-------
B-6-8-6---6-8-6---8/10-------10----10----10-----10----------------------
G-------7-------7-------------------------------------------------------
D-----------------------------------------------------------------------
A-----------------------------------------------------------------------
E-----------------------------------------------------------------------


e-----------------------------------------------------------------------
B-13-10----10---------13----15-13---------------------------------------
G-------12----12/14------14-------14-12-10----12----10-12-10h12p10--10.-
D------------------------------------------12----12---------------12----
A-----------------------------------------------------------------------
E-----------------------------------------------------------------------


e-----------------------------------------------------------------------
B-----------------------------------------------------------------------
G-9--10--9--7--5--7-----5-----------------------------------------------
D--------------------7-----7--6--5--3-----3--5-3h5---3------------------
A--------------------------------------5---------------5-3---5---3h5p3p0
E-----------------------------------------------------------------------


e-----------------------------------------------------------------------
B------------------------3-----3~---------------------------------------
G----------------------2---2--------------------------------------------
D--------------------0-------0------------------------------------------
A---3~------------------------------------------------------------------
E-----------------------------------------------------------------------


Part 1

e-----------------------------------------------------------------------
B-------3-----3-------------3.--------5.--x---3.------------------------
G-------2-----------3-------3.----5---5.--x---2.------------------------
D-------0-----------3-------3.----5-------x---0.------------------------
A-0-3-----------3.--1-------1.----3-------x-----------------------------
E-----------------------------------------------------------------------


e-----------------------------------------------------------------------
B-------3-----3-------------3.--------5.--x---3.------------------------
G-------2-----------3-------3.----5---5.--x---2.------------------------
D-------0-----------3-------3.----5-------x---0.------------------------
A-0-3-----------3.--1-------1.----3-------x-----------------------------
E-----------------------------------------------------------------------


e-----------------------------------------------------------------------
B-------3-----3-----------3-x---x-----5.--x---3.------------------------
G-------2-----2-----------3-x---x-----5.--x---2.------------------------
D-------0-----------------3-x---x-----5.--x---0.------------------------
A-0-3-----------3---0-1-----x---x-3-------x-----------------------------
E-----------------------------------------------------------------------


e-----------------------------------------------------------------------
B----------------------6---8.-------------------------------------------
G------5---7.----7~-----------------------------------------------------
D-/7-----7--------------------------------------------------------------
A-----------------------------------------------------------------------
E-----------------------------------------------------------------------


e-----------------------------------------------------------------------
B---6h8p6---6h8p6---6h8p6---6'----------------6.------------------------
G-7-------7-------7-------7-------7.----7~------------------------------
D-----------------------------------------------------------------------
A-----------------------------------------------------------------------
E-----------------------------------------------------------------------



DOWNLOAD THE COMPLETE TAB HERE





  • click 'Buy Now' and send $6  (or 'Add to Cart' if you want to buy more tabs)
  • add your e-mail address
  • you will get a confirmation e-mail with your download link (in a few seconds)
  • download the full tab (text tab)
  • then start to learn the full song - that's all

IF YOU DIDN'T GET YOUR DOWNLOAD LINK, PLEASE CONTACT US HERE >>

SEND YOUR GUITAR TAB REQUEST HERE >>
MORE ON GUITAR TABS A-Z >>

Guitar Pro: a complete workshop for guitarists at an affordable price