20140518

SABICAS MALAGUENA TAB

Sabicas - one of Spain's best flamenco guitarists - plays Malaguena.
However, it is almost impossible to learn and cover Sabicas' playing, there are some parts that might be good to work out and practice like Part 5 and Part 7.
The TAB will help below.



SABICAS MALAGUENA TAB 

PDF >>
 
Intro

e-1-1-1-1-1-1-1-1--1-1-1-1-1-1-1-1--1-1-1-1-1-1-1-1--1-1-1-1-1-1-1-1----
B-1-1-1-1-1-1-1-1--1-1-1-1-1-1-1-1--1-1-1-1-1-1-1-1--1-1-1-1-1-1-1-1----
G-2-2-2-2-2-2-2-2--2-2-2-2-2-2-2-2--2-2-2-2-2-2-2-2--2-2-2-2-2-2-2-2----
D-3-3-3-3-3-3-3-3--3-3-3-3-3-3-3-3--3-3-3-3-3-3-3-3--3-3-3-3-3-3-3-3----
A-3-3-3-3-3-3-3-3--3-3-3-3-3-3-3-3--3-3-3-3-3-3-3-3--3-3-3-3-3-3-3-3----
E-1-1-1-1-1-1-1-1--1-1-1-1-1-1-1-1--1-1-1-1-1-1-1-1--1-1-1-1-1-1-1-1----


e-3-3-3-3-3-3-3-3--3-3-3-3-3-3-3-3--1-1-1-1-1-1-1-1--1-1-1-1-1-1-1-1----
B-3-3-3-3-3-3-3-3--3-3-3-3-3-3-3-3--1-1-1-1-1-1-1-1--1-1-1-1-1-1-1-1----
G-4-4-4-4-4-4-4-4--4-4-4-4-4-4-4-4--2-2-2-2-2-2-2-2--2-2-2-2-2-2-2-2----
D-5-5-5-5-5-5-5-5--5-5-5-5-5-5-5-5--3-3-3-3-3-3-3-3--3-3-3-3-3-3-3-3----
A-5-5-5-5-5-5-5-5--5-5-5-5-5-5-5-5--3-3-3-3-3-3-3-3--3-3-3-3-3-3-3-3----
E-3-3-3-3-3-3-3-3--3-3-3-3-3-3-3-3--1-1-1-1-1-1-1-1--1-1-1-1-1-1-1-1----


e-0-0-0-0-0-0-0-0--0-0-0-0-0-0-0-0--0-0-0-0-0-0-0-0--0------------------
B-0-0-0-0-0-0-0-0--0-0-0-0-0-0-0-0--0-0-0-0-0-0-0-0--0------------------
G-1-1-1-1-1-1-1-1--1-1-1-1-1-1-1-1--1-1-1-1-1-1-1-1--1------------------
D-2-2-2-2-2-2-2-2--2-2-2-2-2-2-2-2--2-2-2-2-2-2-2-2--2------------------
A-2-2-2-2-2-2-2-2--2-2-2-2-2-2-2-2--2-2-2-2-2-2-2-2--2------------------
E-0-0-0-0-0-0-0-0--0-0-0-0-0-0-0-0--0-0-0-0-0-0-0-0--0------------------



e-----------------------------------------------------------------------
B-0-1-3---0-1-3---1---0-------0-------0---1---0-------------------------
G-1-1-1---1-1-1---1---1---1-2-2---1-2-2---2---1-------------------------
D-3-3-3---3-3-3---3---3---3-3-3---3-3-3---3---3-------------------------
A-----------------------------------------3-----------------------------
E-----0-------0-------0-------0-------0-------0-------------------------


e-----------------------------------------------------------------------
B-0-1-3---0-1-3---1---0-------0-------0---1---0-------------------------
G-1-1-1---1-1-1---1---1---1-2-2---1-2-2---2---1-------------------------
D-3-3-3---3-3-3---3---3---3-3-3---3-3-3---3---2-------------------------
A-----------------------------------------3-----------------------------
E-----0-------0-------0-------0-------0-------0-------------------------


e-----0---------0-------------------------0---1---0---------------------
B-0-1-0-----0-1-0---3---1-------0-1---1-3-0---1---0---------------------
G-----1---------1---1---2-----2-2-2-------1---2---1---------------------
D-----2---------2---2---3-----3-3-3-------2---3---2---------------------
A-----2---------2---2---3---------3-------------------------------------
E-----0---------0---0---0-----------------------------------------------


e-----0---------0-------------------------0---1---0---------------------
B-0-1-0-----0-1-0---3---1-------0-1---1-3-0---1-------------------------
G-----1---------1---1---2-----2-2-2---2---1---2-------------------------
D-----2---------2---2---3-----3-3-3---3---2---3-------------------------
A-----2---------2---2---3---------3-------------------------------------
E-----0---------0---0---0-------------------------0---------------------


(4/16)
e--12-----12----12---12----12---12--------------------------------------
B----9------9-----9----9-----9----9-------------------------------------
G-9---9-10---9-9---9----9-----9----9------------------------------------
D-------------------9---------------------------------------------------
A------------------------11---------------------------------------------
E------------------------------0----------------------------------------


e--12-----12----12---12----12------12.----------------------------------
B----9------9-----9----9-----9-----9.-----------------------------------
G-9---9-10---9-9---9----9-----9----9.-----------------------------------
D-------------------9--------------9.-----------------------------------
A------------------------11---------------------------------------------
E------------------------------0----------------------------------------


Part 2     (5/16)

e--4-4-4-4--5-5-5-7--7-7-10-10--10-10-10-10--10-10-10-10--10-10-10-10---
B-----------------------------------------------------------------------
G--------------------------------------------------------7--------------
D----------6--------------------------------9---------------------------
A------------------------------7----------------------------------------
E-0-----------------0---------------------------------------------------


e---10-10-10-10---8-7-7------------7-8---8-8-8-8----8-8-8-8----8-8-8-8--
B-----------------------10---10-10--------------------------10----------
G-----------------------------------------------------------------------
D---------------9----------9---------------------10---------------------
A-7------------------------------------8--------------------------------
E-----------------------------------------------------------------------


e----------------------------8-8-8-8--10-10-12-10--8-8-8-8--------------
B--10-10-10-10--12-12-12-12---------------------------------12-12-12-12-
G-----------------------------------------------------------------------
D-------------10--------------------10--------------------10------------
A-8-------------------------8---------------------8---------------------
E-----------------------------------------------------------------------


e-----------------------7---7-7-7-7---7-7-7-7---7-7-7-7-----------------
B--10-10-10-10--10-10-9-----------------------9-----------9-9-9-9-------
G-----------------------------------------------------------------------
D-------------10--------------------9-----------------------------------
A-8-----------------------7-----------------------------7---------------
E-----------------------------------------------------------------------


e----------------7-7-7-10---10-10-12-13--13-13-13-13--12-12-12-12-------
B--10-10-10-10----------------------------------------------------------
G--------------------------------------10-------------------------------
D-9-----------------------9-------------------------10------------------
A--------------7--------------------------------------------------------
E-----------------------------------------------------------------------


e----10-10-10-10--------------------------------------------------------
B-----------------------------------------------------------------------
G-10--------------------------------------------------------------------
D-----------------------------------------------------------------------
A-----------------------------------------------------------------------
E-----------------------------------------------------------------------


e-----------------------------10-10-10-10--10-10-10-10------------------
B---13-12-12-12--10-12-12-12----------------------------13-13-13-13-----
G--------------10------------------------10-----------------------------
D-10------------------------10------------------------10----------------
A-----------------------------------------------------------------------
E-----------------------------------------------------------------------


e-----------------------------------------------------------------------
B----12-12-12-12--------------------------------------------------------
G-----------------------------------------------------------------------
D-----------------------------------------------------------------------
A-10--------------------------------------------------------------------
E-----------------------------------------------------------------------


e----------------------------------------------------------------0------
B------10-10-10--10-10-10-10--8-8-8-8--8-8-8-8---8--------------0-0-----
G--------------------------------------------------10-10-------1---1----
D-12\10--------10--------------------10-----------------------2-----2---
A---------------------------8------------------8---------------------2--
E--------------------------------------------------------0------------0-


Part 3

e-0-1-3-1-0-------------------------------------------------------------
B-------------0-3-1-0-1h3p1p0-------0-1-0-3-1-0-------------------------
G-----------------------------2-1-2-------------2-1---------------------
D---------2-----------3---------------3-------------2-------------------
A-----------------------------------------------------------------------
E-------------------------------------------------0---------------------


e-0-1-3-1-0---------------------------------------0-----0---------------
B-------------0-3-1-0-1h3p1p0-------0-1-0-3-1-0----0---0-0--------------
G-----------------------------2-1-2-------------2---1-1---1-------------
D-----------2---------3---------------3--------------2-----2------------
A-----------------------------------------------------------2-----------
E---------0---------------------------------------0----------0----------


Part 4

e-----------------------------------------------------------------------
B-----------------------------------------------------------------------
G-----------------------------------------------------------------------
D-----------------------------------------------------------------------
A-2---3---5---5~----5~----------5---5~----3h5p3-2---0-2-3~--------------
E-----------------------------------------------------------------------


e-----------------------------------------1<13>-------------------------
B---------------------------------1<13>---------------------------------
G-------------------------2<14>-----------------------------------------
D-----------------3<15>-------------------------------------------------
A---------3<15>---------------------------------------------------------
E-1<13>-----------------------------------------------------------------


e-----------------------------------------------------------------------
B--------------------------------------------0--------------------------
G-----------------------------------------------------------------------
D-----------------------------------------------------------------------
A-----2---3-/-5~--------------3-2-0h2p0---0-2---------------------------
E-5-------------------------------------4-------------------------------


e---------------------------------------<12>----------------------------
B--------------------------------<12>-----------------------------------
G------------------------1<13>------------------------------------------
D----------------2<14>--------------------------------------------------
A--------2<14>----------------------------------------------------------
E-<12>------------------------------------------------------------------


e-----------------------------------------------------------------------
B-----------------------------------------------------------------------
G-----------------------------------------------------------------------
D-----------------------------------------------------------------------
A-----0---2---5~------5~------5---5---3h5p3-2---0-2-3~------------------
E-4---------------------------------------------------------------------


e-----------------------------------------1<13>-------------------------
B---------------------------------1<13>---------------------------------
G-------------------------2<14>-----------------------------------------
D-----------------3<15>-------------------------------------------------
A---------3<15>---------------------------------------------------------
E-1<13>-----------------------------------------------------------------


e-----------------------------------------------------------------------
B------------------------------------------------------------0----------
G-----------------------------------------------------------------------
D-------0-2p0-3p2-5~------------------3p2p0-----------------------------
A-0h2h3-------------------------------------3p2p0-------0---2-----------
E-------------------------------------------------3p1h3---3-------------


e------------------------------------0-----0----------------------------
B-----------------------------------------0-----------------------------
G----------------------------------------1------------------------------
D---------------------------------------2-------------------------------
A-0------------------------------------2--------------------------------
E---3-1-0-3-1-/-5~-------4h5p4.-------0---------------------------------


Part 5

(3/16)
e---4-----4-----4-----4-----4-----4-------------------------------------
B-----5-----5-----5-----5-----5-----5-----------------------------------
G-------------4-----------------4---------------------------------------
D-------6-----------------6---------------------------------------------
A-7-----------------7---------------------------------------------------
E-----------------------------------------------------------------------


e---5-----5-----5-----5-----5-----5-------------------------------------
B-----6-----6-----6-----6-----6-----6-----------------------------------
G-------5---------------------------------------------------------------
D-------------9-----7-----5---------------------------------------------
A-8-----------------------------8---------------------------------------
E-----------------------------------------------------------------------


e---4-----4-----4-----4-----4-----4-------------------------------------
B-----5-----5-----5-----5-----5-----5-----------------------------------
G-------------4-----------------4---------------------------------------
D-------6-----------------6---------------------------------------------
A-7-----------------7---------------------------------------------------
E-----------------------------------------------------------------------


e---5-----5-----5-----5-----5-----5-------------------------------------
B-----6-----6-----6-----6-----6-----6-----------------------------------
G-------5---------------------------------------------------------------
D-------------9-----7-----5---------------------------------------------
A-8-----------------------------8---------------------------------------
E-----------------------------------------------------------------------


e-------0-1-3-1-0-------------------------------------------------------
B-------------------0-3-1-0-1h3p1p0-------0-1-0-3-1-0-------------------
G-----------------------------------2-1-2-------------2-1---------------
D----2------------2---------3---------------3-------------2-------------
A-----------------------------------------------------------------------
E-0-------------0---------------------------------------0---------------


e-0-1-3-1-0-------------------------------------------------------------
B-------------0-3-1-0-1h3p1p0-------0-1-0-3-1-0-------------------------
G-----------------------------2-1-2-------------2-----------------------
D-----------2---------3---------------3---------------------------------
A-----------------------------------------------------------------------
E---------0-------------------------------------------------------------


e-----4-5-7-5-4---4-5-7-4-5---5-7-8-7-5h7p5-----5---------0-------------
B-------------------------------------------8-----8-6h8p6---------------
G-----------------------------------------------------------------------
D---6-----------6-----------7-------------------------------------------
A-------------------------0-----------0---------------------------------
E-0-----------0-------------------------------------------0-------------


e-0-1---0---------------------------------------------------------0-----
B-----3---1-3-0-1---0-----------------------------------------0---------
G-----------------2---1-----------------------------------1-------------
D-------------------------2-3-0-2---0-----------------2-----------------
A---------------------------------3---2-3-0-2-----2---------------------
E---------------------------------------------0-------------------------


Part 6

e-0-0-0-0-0-0-0-0--0-0-0-0-0-0-0-0--0-0-0-0-0-0-0-0--0-0-0-0-0-0-0-0----
B-0-0-0-0-0-0-0-0--0-0-0-0-0-0-0-0--0-0-0-0-0-0-0-0--0-0-0-0-0-0-0-0----
G-1-1-1-1-1-1-1-1--1-1-1-1-1-1-1-1--1-1-1-1-2-2-2-2--2-2-1-1-1-1-1-1----
D-2-2-2-2-2-2-2-2--2-2-2-2-2-2-2-2--2-2-2-2-2-2-2-2--2-2-2-2-2-2-2-2----
A-2-2-2-2-2-2-2-2--2-2-2-2-2-2-2-2--2-2-2-2-2-2-2-2--2-2-2-2-2-2-2-2----
E-0-0-0-0-0-0-0-0--0-0-0-0-0-0-0-0--0-0-0-0-0-0-0-0--0-0-0-0-0-0-0-0----


e-0-0-0-0-0-0-0-0--0-0-0-0-0-0-0-0-------0------------------------1-----
B-3-3-3-3-3-3-3-3--3-3-3-3-3-3-3-3------3----1h3p1-0-----0-1-----1-1----
G-1-1-1-1-1-1-1-1--1-1-1-1-1-1-1-1-----1---------------2--------2---2---
D-3-3-3-3-3-3-3-3--3-3-3-3-3-3-3-3----3------------------------3-----3--
A-2-2-2-2-2-2-2-2--2-2-2-2-2-2-2-2---2--------------------------------3-
E-0-0-0-0-0-0-0-0--0-0-0-0-0-0-0-0--0----------------------1------------


e------1--1--1--1-------------------------------------------------------
B-----1-1--1--1--1------------------------------------------------------
G----2---2--2--2--2-----------------------------------------------------
D---3--------------3----------------------------------------------------
A--3----------------3---------------------------------------------------
E-1------------------1-1-1-1-1-1-1-1-1-1-1------------------------------


e-1-1-1-1-1-1-1-1--0-0-0-0-0-0-0-0--1-1-1-1-1-1-1-1--1-1-1-1-1-1-1-1----
B-1-1-1-1-1-1-1-1--0-0-0-0-0-0-0-0--1-1-1-1-1-1-1-1--3-3-3-3-3-3-3-3----
G-2-2-2-2-2-2-2-2--2-2-2-2-2-2-2-2--2-2-2-2-2-2-2-2--2-2-2-2-2-2-2-2----
D-3-3-3-3-3-3-3-3--3-3-3-3-3-3-3-3--3-3-3-3-3-3-3-3--x-x-x-x-x-x-x-x----
A-3-3-3-3-3-3-3-3--3-3-3-3-3-3-3-3--3-3-3-3-3-3-3-3--3-3-3-3-3-3-3-3----
E-1-1-1-1-1-1-1-1--1-1-1-1-1-1-1-1--1-1-1-1-1-1-1-1--1-1-1-1-1-1-1-1----


e-1-1-1-1-1-1-1-1--0-0-0-0-0-0-0-0--1-----------------------------------
B-1-1-1-1-1-1-1-1--0-0-0-0-0-0-0-0--1-----0-------------------0---------
G-2-2-2-2-2-2-2-2--2-2-2-2-2-2-2-2--2-------2-1h2-1h2-1h2-1h2-----------
D-3-3-3-3-3-3-3-3--3-3-3-3-3-3-3-3--3-----------------------------------
A-3-3-3-3-3-3-3-3--3-3-3-3-3-3-3-3--3-----------------------------------
E-1-1-1-1-1-1-1-1--1-1-1-1-1-1-1-1--1-------------------------0---------


e----0-------0--0-0--0--------------------------------------------------
B---0-0-----0-0--0-0--0-------------------------------------------------
G--1---1---1---1----1--1------------------------------------------------
D-2-------2-------------2-----------------------------------------------
A--------2---------------2----------------------------------------------
E-------0-----------------0-0-0-0-0-0-0-0-------------------------------


e-0-0-0-0-0-0-0-0--0-0-0-0-0-0-0-0--0-0-0-0-0-0-0-0--0-0-0-0-0-0-0-0----
B-0-0-0-0-0-0-0-0--0-0-0-0-0-0-0-0--0-0-0-0-0-0-0-0--0-0-0-0-0-0-0-0----
G-1-1-1-1-1-1-1-1--1-1-1-1-1-1-1-1--2-2-2-2-2-2-2-2--1-1-1-1-1-1-1-1----
D-2-2-2-2-2-2-2-2--2-2-2-2-2-2-2-2--2-2-2-2-2-2-2-2--2-2-2-2-2-2-2-2----
A-2-2-2-2-2-2-2-2--2-2-2-2-2-2-2-2--2-2-2-2-2-2-2-2--2-2-2-2-2-2-2-2----
E-0-0-0-0-0-0-0-0--0-0-0-0-0-0-0-0--0-0-0-0-0-0-0-0--0-0-0-0-0-0-0-0----


e-0-0-0-0-0-0-0-0--0-0-0-0-0-0-0-0-------0------------------------1-----
B-3-3-3-3-3-3-3-3--3-3-3-3-3-3-3-3------3----1h3p1-0-----0-1-----1-1----
G-1-1-1-1-1-1-1-1--1-1-1-1-1-1-1-1-----1---------------2--------2---2---
D-3-3-3-3-3-3-3-3--3-3-3-3-3-3-3-3----3------------------------3-----3--
A-2-2-2-2-2-2-2-2--2-2-2-2-2-2-2-2---2--------------------------------3-
E-0-0-0-0-0-0-0-0--0-0-0-0-0-0-0-0--0----------------------1------------


e------1--1--1----------------------------------------------------------
B-----1-1--1--1---------------------------------------------------------
G----2---2--2--2--------------------------------------------------------
D---3-----------3-------------------------------------------------------
A--3-------------3------------------------------------------------------
E-1---------------1-----------------------------------------------------


e-1-1-1-1-1-1-1-1--0-0-0-0-0-0-0-0--1-1-1-1-1-1-1-1--1-1-1-1-1-1-1-1----
B-1-1-1-1-1-1-1-1--0-0-0-0-0-0-0-0--1-1-1-1-1-1-1-1--3-3-3-3-3-3-3-3----
G-2-2-2-2-2-2-2-2--2-2-2-2-2-2-2-2--2-2-2-2-2-2-2-2--2-2-2-2-2-2-2-2----
D-3-3-3-3-3-3-3-3--3-3-3-3-3-3-3-3--3-3-3-3-3-3-3-3--x-x-x-x-x-x-x-x----
A-3-3-3-3-3-3-3-3--3-3-3-3-3-3-3-3--3-3-3-3-3-3-3-3--3-3-3-3-3-3-3-3----
E-1-1-1-1-1-1-1-1--1-1-1-1-1-1-1-1--1-1-1-1-1-1-1-1--1-1-1-1-1-1-1-1----


e-1-1-1-1-1-1-1-1------0-----0------------------------------------------
B-1-1-1-1-3-3-3-3-----0-----0-------------------------------------------
G-2-2-2-2-2-2-2-2----1-----1--------------------------------------------
D-3-3-3-3-x-x-x-x---2-----2---------------------------------------------
A-3-3-3-3-3-3-3-3--2-----2----------------------------------------------
E-1-1-1-1-1-1-1-1-0-----0-----------------------------------------------


Part 7

e-0-1-3-1-0-------------------------------------------------------------
B-------------0-3-1-0-1h3p1p0-------0-1-0-3-1-0-------------------------
G-----------------------------2-1-2-------------2-1---------------------
D---------2-----------3---------------3-------------2-------------------
A-----------------------------------------------------------------------
E-------------------------------------------------0---------------------


e-0-1-3-1-0-------------------------------------------------------------
B-------------0-3-1-0-1h3p1p0-------0-1-0-3-1-0-------------------------
G-----------------------------2-1-2-------------2-----------------------
D-----------2---------3---------------3---------------------------------
A-----------------------------------------------------------------------
E---------0-------------------------------------------------------------


e-0---0-0---0-0---0-0---0-0---0-0---0-0---0-0---0-0---0-0---0-0---0-0--0
B-----------------------------------------------------------------------
G-----------------------------------------------------------------------
D-------------9-----------------9-----------10----9---------------------
A-------11----------------11----------12----------------12----10----8---
E-0-----------------0---------------------------------------------------


e-0---0-0---0-0---0-0---0-0---0-0---0-0---0-0---0-0---0-0---0-0---0-0--0
B-----------------------------------------------------------------------
G-----------------------------------------------------------------------
D-------------9-----------------9-----------10----9---------------------
A-------11----------------11----------12----------------12----10----8---
E-0-----------------0---------------------------------------------------


e-0---0-0-0---0-0-0---0---0---0-0-0---0-0-0---0-------------------------
B-----------------------------------------------------------------------
G-----------------------------------------------------------------------
D---------9-----------9-------10--9-------------------------------------
A-----11----------11------12----------12--10--8-------------------------
E-0-----------0---------------------------------------------------------


e-0---0-0-0---0-0-0---0---0---0---0---0---0---------------------------0-
B-----------------------------------------------------------------0-----
G-------------------------------------------------------------1---------
D---------9-----------9-------10--9-----------------------2-------------
A-----11----------11------12----------12--10--8-------2-----------------
E-0-----------0-----------------------------------0---------------------


e-12.----------4.----------0-0------------------------------------------
B--------------5.----------0-0------------------------------------------
G--------------4.----------1-1------------------------------------------
D--------------6.----------2-2------------------------------------------
A--------------7.----------2-2------------------------------------------
E-0.-----------------------0-0------------------------------------------