20140512

SIMPLE PLAN SAVE YOU TAB

See the guitar parts of Simple Plan - Save You in Eb tuning (half step down).
The video only shows the intro part (because it sounds cool) and basically the whole song is made up with these 4 chords: C#m B Aadd9 and E. Only the structure changes.
See the TAB of the complete song below.



SIMPLE PLAN SAVE YOU TAB

PDF >>

Intro

  "C#m"           "Add9"          "E"             "B"
D#---------0---------------0---------------0---------------0------------
A#---------5---------------0---------------0---------------0------------
F#---------6---------------2---------------1---------------4------------
C#-----6-------6-------2-------2-------2-------2-------4-------4--------
G#-4---------------0-------------------------------2--------------------
D#---------------------------------0------------------------------------


  "C#m"           "Add9"          "E"             "B"
D#---------0---------------0---------------0---------------0------------
A#---------5---------------0---------------0---------------0------------
F#---------6---------------2---------------1---------------4------------
C#-----6-------6-------2-------2-------2-------2-------4-------4--------
G#-4---------------0-------------------------------2--------------------
D#---------------------------------0------------------------------------


  "C#m"           "Add9"          "E"             "B"
D#---------0---------------0---------------0---------------0------------
A#---------5---------------0---------------0---------------0------------
F#---------6---------------2---------------1---------------4------------
C#-----6-------6-------2-------2-------2-------2-------4-------4--------
G#-4---------------0-------------------------------2--------------------
D#---------------------------------0------------------------------------

D#---------0---0-0---------0---0-0---------0---0-0---------0------------
A#---------0---0-0---------0---0-0---------0---0-0-x-x-----0------------
F#---------2---2-2---------2---2-2---------4---4-4-x-x-----9------------
C#-2---2---2---2-2-2---2---2---2-2-4---4---4---4-4-x-x-----9------------
G#-0---0---0---0-0-0---0---0---0-0-2---2---2---2-2-x-x-----7------------
D#-----------------------------------------------------0---0---0--------


D#---------0---0-0---------0---0-0-0------------------------------------
A#---------0---0-0---------0---0-0-0------------------------------------
F#---------2---2-2---------2---2-2-4------------------------------------
C#-2---2---2---2-2-2---2---2---2-2-4------------------------------------
G#-0---0---0---0-0-0---0---0---0-0-2------------------------------------
D#----------------------------------------------------------------------


Chorus

D#---------0---0-0---------0---0-0---------0---0-0---------0---0-0------
A#---------0---0-0---------0---0-0---------0---0-0---------0---0-0------
F#---------1---1-1---------1---1-1-4---4---4---4-4-4---4---4---4-4------
C#-2---2---2---2-2-2---2---2---2-2-4---4---4---4-4-4---4---4---4-4------
G#-2---2---2---2-2-2---2---2---2-2-2---2---2---2-2-2---2---2---2-2------
D#-0---0---0---0-0-0---0---0---0-0--------------------------------------


D#---------0---0-0---------0-------------------0-----------0---0-0------
A#---------0---0-0---------0-------------------0-----------0---0-0------
F#-2---2---2---2-2-2---2---2---2---4---4---4---4-------4---4---4-4------
C#-2---2---2---2-2-2---2---2---2---4---4---4---4-------4---4---4-4------
G#-0---0---0---0-0-0---0---0---0---2---2---2---2-------2---2---2-2------
D#----------------------------------------------------------------------


D#---------0---0-0---------0---0-0---------0---0-0---------0---0-0------
A#---------0---0-0---------0---0-0---------0---0-0---------0---0-0------
F#---------1---1-1---------1---1-1-4---4---4---4-4-4---4---4---4-4------
C#-2---2---2---2-2-2---2---2---2-2-4---4---4---4-4-4---4---4---4-4------
G#-2---2---2---2-2-2---2---2---2-2-2---2---2---2-2-2---2---2---2-2------
D#-0---0---0---0-0-0---0---0---0-0--------------------------------------


D#---------0---0-0---------0-------------------0------------------------
A#---------0---0-0---------0-------------------0------------------------
F#-2---2---2---2-2-2---2---2---2---4---4---4---4-------4---4---4--------
C#-2---2---2---2-2-2---2---2---2---4---4---4---4-------4---4---4--------
G#-0---0---0---0-0-0---0---0---0---2---2---2---2-------2---2---2--------
D#----------------------------------------------------------------------


Verse = Intro


Chorus


Bridge

D#-0---0-----------0---0-----------0---0-----------0---0----------------
A#-5---5---x-x-x-x-0---0---x-x-x-x-0---0---x-x-x-x-0---0---x-x-x-x------
F#-6---6---x-x-x-x-4---4---x-x-x-x-2---2---x-x-x-x-4---4---x-x-x-x------
C#-6---6---x-x-x-x-4---4---x-x-x-x-2---2---x-x-x-x-4---4---x-x-x-x------
G#-4---4---x-x-x-x-2---2---x-x-x-x-0---0---x-x-x-x-2---2---x-x-x-x------
D#----------------------------------------------------------------------


D#-0---0-----------0---0-----------0---0-------0---0-0-0---0-0-0-0------
A#-5---5---x-x-x-x-0---0---x-x-x-x-0---0---x-x-0---0-0-0---0-0-0-0------
F#-6---6---x-x-x-x-4---4---x-x-x-x-2---2---x-x-4---4-4-4---4-4-4-4------
C#-6---6---x-x-x-x-4---4---x-x-x-x-2---2---x-x-4---4-4-4---4-4-4-4------
G#-4---4---x-x-x-x-2---2---x-x-x-x-0---0---x-x-2---2-2-2---2-2-2-2------
D#----------------------------------------------------------------------


D#---------0---------------0---------------0---------------0------------
A#---------5---------------0---------------0---------------0------------
F#-6---6---6---6---4---4---4---4---2---2---2---2---4---4---4---4--------
C#-6---6---6---6---4---4---4---4---2---2---2---2---4---4---4---4--------
G#-4---4---4---4---2---2---2---2---0---0---0---0---2---2---2---2--------
D#----------------------------------------------------------------------


D#----------------------------------------------------------------------
A#-3---3---3---3---3---3---3---3----------------------------------------
F#-2---2---2---2---2---2---2---2---2---2---2---2---4---4---4---4-\------
C#-0---0---0---0---0---0---0---0---2---2---2---2---4---4---4---4-\------
G#-0---0---0---0---0---0---0---0---0---0---0---0---2---2---2---2-\------
D#----------------------------------------------------------------------


Solo

D#-------------0---------------0-----------0---------------0------------
A#-x-x-----7---------------9-------------------0---7-----------0--------
F#-x-x------------------------------------------------------------------
C#-x-x-9---------------9---------------9-------------------------\------
G#-x-x------------------------------------------------------------------
D#----------------------------------------------------------------------


D#-------------0--------------------------------------------------------
A#---------7---------------9------/9---10--9---7~------7p5-7---7-\------
F#----------------------------------------------------------------------
C#---/-9---------------9-------9----------------------------------------
G#----------------------------------------------------------------------
D#----------------------------------------------------------------------


D#-------------0---------------0-----------0-------------------0--------
A#---------7---------------9-------------------0---7-/-9---7------------
F#----------------------------------------------------------------------
C#---/-9---------------9---------------9--------------------------------
G#----------------------------------------------------------------------
D#----------------------------------------------------------------------


D#-0-------0-------0-------0--------------------------------------------
A#-5/7-----5-------5/7-----5--------------------------------------------
F#----------------------------------------------------------------------
C#----------------------------------------------------------------------
G#----------------------------------------------------------------------
D#----------------------------------------------------------------------


D#-0-------0-------0-------0--------------------------------------------
A#-5/7-----5-------5/7-----5--------------------------------------------
F#----------------------------------------------------------------------
C#----------------------------------------------------------------------
G#----------------------------------------------------------------------
D#----------------------------------------------------------------------


Solo GTR 2

D#---------0---------------0---------------0---------------0------------
A#---------5---------------0---------------0---------------0------------
F#-6---6---6---6-6-2---2---2---2-2---------1-------4-4-4---4---4-4------
C#-6---6---6---6-6-2---2---2---2-2-2---2---2---2-2-4-4-4---4---4-4------
G#-4---4---4---4-4-0---0---0---0-0-2---2---2---2-2-2-2-2---2---2-2------
D#---------------------------------0---0---0---0-0----------------------


D#---------0---------------0---------------0---------------0------------
A#---------5---------------0---------------0---------------0------------
F#-6---6---6---6-6-2---2---2---2-2---------1---4-------4---4---4-4------
C#-6---6---6---6-6-2---2---2---2-2-2---2---2---4-------4---4---4-4------
G#-4---4---4---4-4-0---0---0---0-0-2---2---2---2-------2---2---2-2------
D#---------------------------------0---0---0----------------------------


D#---------0---------------0---------------0---------------0------------
A#---------5---------------0---------------0---------------0------------
F#-6---6---6---6-6-2---2---2---2-2---------1-------4-4-4---4---4-4------
C#-6---6---6---6-6-2---2---2---2-2-2---2---2---2-2-4-4-4---4---4-4------
G#-4---4---4---4-4-0---0---0---0-0-2---2---2---2-2-2-2-2---2---2-2------
D#---------------------------------0---0---0---0-0----------------------


D#---------0---0-0---------0---0-0---------0---0-0---------0------------
A#---------0---0-0---------0---0-0---------0---0-0---------0------------
F#-2---2---2---2-2-2---2---2---2-2-4---4---4---4-4-9-9-9---9---9-9------
C#-2---2---2---2-2-2---2---2---2-2-4---4---4---4-4-9-9-9---9---9-9------
G#-0---0---0---0-0-0---0---0---0-0-2---2---2---2-2-7-7-7---7---7-7------
D#----------------------------------------------------------------------


D#---------0---0-0---------0---0-0--------------------------------------
A#---------0---0-0---------0---0-0--------------------------------------
F#-2---2---2---2-2-2---2---2---2-2-4.-----------------------------------
C#-2---2---2---2-2-2---2---2---2-2-4.-----------------------------------
G#-0---0---0---0-0-0---0---0---0-0-2.-----------------------------------
D#----------------------------------------------------------------------


Chorus 2x at the end

D#---------0---0-0---------0---0-0---------0---0-0---------0---0-0------
A#---------0---0-0---------0---0-0---------0---0-0---------0---0-0------
F#---------1---1-1---------1---1-1-4---4---4---4-4-4---4---4---4-4------
C#-2---2---2---2-2-2---2---2---2-2-4---4---4---4-4-4---4---4---4-4------
G#-2---2---2---2-2-2---2---2---2-2-2---2---2---2-2-2---2---2---2-2------
D#-0---0---0---0-0-0---0---0---0-0--------------------------------------


D#---------0---0-0---------0-------------------0-----------0---0-0------
A#---------0---0-0---------0-------------------0-----------0---0-0------
F#-2---2---2---2-2-2---2---2---2---4---4---4---4-------4---4---4-4------
C#-2---2---2---2-2-2---2---2---2---4---4---4---4-------4---4---4-4------
G#-0---0---0---0-0-0---0---0---0---2---2---2---2-------2---2---2-2------
D#----------------------------------------------------------------------


D#---------0---0-0---------0---0-0---------0---0-0---------0---0-0------
A#---------0---0-0---------0---0-0---------0---0-0---------0---0-0------
F#---------1---1-1---------1---1-1-4---4---4---4-4-4---4---4---4-4------
C#-2---2---2---2-2-2---2---2---2-2-4---4---4---4-4-4---4---4---4-4------
G#-2---2---2---2-2-2---2---2---2-2-2---2---2---2-2-2---2---2---2-2------
D#-0---0---0---0-0-0---0---0---0-0--------------------------------------


D#---------0---0-0---------0-------------------0------------------------
A#---------0---0-0---------0-------------------0------------------------
F#-2---2---2---2-2-2---2---2---2---4---4---4---4-------4---4---4--------
C#-2---2---2---2-2-2---2---2---2---4---4---4---4-------4---4---4--------
G#-0---0---0---0-0-0---0---0---0---2---2---2---2-------2---2---2--------
D#----------------------------------------------------------------------


D#---------0---0-0---------0---0-0---------0---0-0---------0---0-0------
A#---------0---0-0---------0---0-0---------0---0-0---------0---0-0------
F#---------1---1-1---------1---1-1-4---4---4---4-4-4---4---4---4-4------
C#-2---2---2---2-2-2---2---2---2-2-4---4---4---4-4-4---4---4---4-4------
G#-2---2---2---2-2-2---2---2---2-2-2---2---2---2-2-2---2---2---2-2------
D#-0---0---0---0-0-0---0---0---0-0--------------------------------------


D#---------0---0-0---------0-------------------0-----------0---0-0------
A#---------0---0-0---------0-------------------0-----------0---0-0------
F#-2---2---2---2-2-2---2---2---2---4---4---4---4-------4---4---4-4------
C#-2---2---2---2-2-2---2---2---2---4---4---4---4-------4---4---4-4------
G#-0---0---0---0-0-0---0---0---0---2---2---2---2-------2---2---2-2------
D#----------------------------------------------------------------------


D#---------0---0-0---------0---0-0---------0---0-0---------0---0-0------
A#---------0---0-0---------0---0-0---------0---0-0---------0---0-0------
F#---------1---1-1---------1---1-1-4---4---4---4-4-4---4---4---4-4------
C#-2---2---2---2-2-2---2---2---2-2-4---4---4---4-4-4---4---4---4-4------
G#-2---2---2---2-2-2---2---2---2-2-2---2---2---2-2-2---2---2---2-2------
D#-0---0---0---0-0-0---0---0---0-0--------------------------------------


D#---------0---0-0---------0--------------------------------------------
A#---------0---0-0---------0--------------------------------------------
F#-2---2---2---2-2-2---2---2---2---4---4---4---4------------------------
C#-2---2---2---2-2-2---2---2---2---4---4---4---4------------------------
G#-0---0---0---0-0-0---0---0---0---2---2---2---2------------------------
D#----------------------------------------------------------------------