20140508

SLAINTE MHATH OX TAB

Slainte Mhath was a celtic fusion band and their track - Ox - is a guitar solo.
It sounds like played with a Telecaster and they use clean sound with some reverb.
See the TAB below (be careful with the random palm muted notes)



SLAINTE MHATH OX TAB

PDF >>

Part 1     (palm muted)

e-----------------------------------------------------------------------
B-----------------------------------------------------------------------
G-----------------------------------------------------------------------
D-------------------0-2-4-5-4-2p0---------------------------------------
A-2-----0-2-------2---------------0-2-2-0-2---------2-0---------0-------
E-----------0-0-----------------------------0-0-2-3-----2-3-0-0---------
             

e-----------------------------------------------------------------------
B-----------------------------------------------------------------------
G-----------------------------------------------------------------------
D-------------------0-2-4-5-4-2-0---------------------------------------
A-2---2-0-2-------2---------------0-2-2-0-2---------2-0---------0-------
E-----------0-000---------------------------0-0-2-3-----2-3-0-0---------


e-----------------------------------------------------------------------
B-----------------------------------------------------------------------
G-------------------------------------------4-------2-------------------
D---0-2-4-555-2-5-4-2-0-4-2-0-------0-2-4-5---5.--4---4-0-0-2-2-0-------
A-2---------------------------2-0-2-------------------------------------
E-----------------------------------------------------------------------



e-----------------------------------------------------------------------
B-----------------------------------------------------------------------
G-----------------------------------------------------------------------
D---0-2-4-5-4-2-5-4-2-0-4-2-4-5-0---------------------------------------
A-2-------------------------------2---2-0-2---------2-0---------0-------
E-------------------------------------------0-0-2-3-----2-3-0-0---------


Part 2     (palm muted)

e-----------------------------------------------------------------------
B-----------------------------------------------------------------------
G-----------------------------------------------------------------------
D---2---------------0-2-4-5-4-2-----------------------------------------
A-2---2-0-2-------2-------------0-0-2-2-0-2---------2-0---------0-------
E-----------0-000---------------------------0-0-2-3-----2-3-0-0---------


e-----------------------------------------------------------------------
B-----------------------------------------------------------------------
G-----------------------------------------------------------------------
D---2---------------0-2-4-5-4-2-----------------------------------------
A-2---2-0-2-------2-------------0-0-2-2-0-2---------2-0---------0-------
E-----------0-000---------------------------0-0-2-3-----2-3-0-0---------


e-----------------------------------------------------------------------
B-----------------------------------------------------------------------
G-----------------------------------------------------------------------
D---0-2-4-555-2-5-4-2-0-4-2-0-------0-2-4-4(5)(4)-2-5-4-2-0-4-0-2-2-0---
A-2---------------------------2-0-2-------------------------------------
E-----------------------------------------------------------------------


e-----------------------------------------------------------------------
B-----------------------------------------------------------------------
G-----------4---0---2---------------------------------------------------
D---0-2-4-5---5---4---4-0-2-4-5-0---------------------------------------
A-2-------------------------------2---2-0-2---------2-0-----------------
E-------------------------------------------0-0-2-3-----2-3-0-0---------


Part 3

e-----------------------------------------------------------------------
B-----------------------------------------------------------------------
G-----------------------------------------------------------------------
D-------------------0-2-4-5-4-2-0---------------------------------------
A-2-----0h2-2-2-------------------0-2-2-0-2---------2-0---------0-------
E-3-----------0-----------------------------0-0-2-3-----2-3-0-0---------


e-----------------------------------------------------------------------
B-----------------------------------------------------------------------
G-----------------------------------------------------------------------
D-------------------0-2-4-5-4-2-0---------------------------------------
A-2-x-2-----2-2-------------------0-2-2-0-2---------2-0---------0-------
E-3-x-3-------0-----------------------------0-0-2-3-----2-3-0-0---------


e-----------------------------------------------------------------------
B-----------------------------------------------------------------------
G-----------------------------------------------------------------------
D---0-2-4-555-2-5-4-2-0-4-2-0-------0-2-4-4-5-2-5-4-2-0-4-0-2-2-0-------
A-2---------------------------2-0-2-------------------------------------
E-----------------------------------------------------------------------


e-----------------------------------------------------------------------
B-----------------------------------------------------------------------
G-----------------------------------------------------------------------
D---0-2-4-5-4-2-5-4-2-0-4-2-4-5-0---------------------------------------
A-2-------------------------------2---2-0-2---------2-0---------0-------
E-------------------------------------------0-0-2-3-----2-3-0-0---------


Part 4   (palm muted)

e-----------------------------------------------------------------------
B-----------------------------------------------------------------------
G-----------------------------------------------------------------------
D-------------------0-2-4-5-4-2-0---------------------------------------
A-0-2-2-0-2-----0-2---------------222-2-0-2---------2-0---------0-------
E-----------0-0-----------------------------0-0-2-3-----2-3-0-0---------
             

e-----------------------------------------------------------------------
B-----------------------------------------------------------------------
G-----------------------------------------------------------------------
D-------------------0-2-4-5-4-2-0---------------------------------------
A-1-2-2-0-2-----0-2---------------0-2-2-0-2---------2-0---------0-------
E-----------0-0-----------------------------0-0-2-3-----2-3-0-0---------


e-----------------------------------------------------------------------
B-----------------------------------------------------------------------
G-----------------------------------------------------------------------
D---0-2-4-55552-5-4-2-0-4-2-0-------0-2-4-555-2-5-4-2-0-4-0-2-2-0-------
A-2---------------------------2-0-2-------------------------------------
E-----------------------------------------------------------------------


e-----------------------------------------------------------------------
B-----------------------------------------------------------------------
G-----------4---0---2---------------------------------------------------
D---0-2-4-5---5---4---4-0-2-4-5-0-0-2-2-0-2-----------------------------
A-2-------------------------------------------0-2-2-0-2---0-2-2-0-2-----
E---------------------------------------------------------0-0-0-0-0-----


Part 5

e-----------------------------------------------------------------------
B-----------------------------------------------------------------------
G-----------------------------------------------------------------------
D---------------------2-4-5-4-2-----------------------------------------
A-1h2-2-0-2---------2-----------0-0-2-2-0-2---------2-0---------0-------
E-----------0-0-2-3-------------------------0-0-2-3-----2-3-0-0---------
             

e-----------------------------------------------------------------------
B-----------------------------------------------------------------------
G-----------------------------------------------------------------------
D-------------------0-2-4-5-4-2-0---------------------------------------
A-2---2-0-2-----0-2---------------1h2-2-0-2---------2-0---------0-------
E-----------0-0-----------------------------0-0-2-3-----2-3-0-0---------


e-----------------------------------------------------------------------
B-----------------------------------------------------------------------
G-------------------------------------------4---0---2-------------------
D---0-2-4-555-2-5-4-2-0-4-2-0-------0-2-4-5---5---4---4-0-2---2p0-------
A-2---------------------------2-0-2-------------------------------------
E-----------------------------------------------------------------------


e-----------------------------------------------------------------------
B-----------------------------------------------------------------------
G-----------------------------------------------------------------------
D---0-2-4-5-4-2-5-4-2-0-4-2-4-5-0---------------------------------------
A-2-------------------------------2---2-0-2---------2-0-----------------
E-------------------------------------------0-0-2-3-----2-3-0-0---------


Part 6

e-----------------------2-3-2-------------------------------------------
B-------------------3-5-------5-----------------------------------------
G-4---4-2-4-------4-------------0-2-4-4-2-4---------4-2---------2-------
D-----------2-2-----------------------------2-2-4-5-----4-5-2-2---------
A-----------------------------------------------------------------------
E-----------------------------------------------------------------------


e-----------------------2-3-2-------------------------------------------
B-------------------3-5-------5-----------------------------------------
G-3h4-4-2-4-------4-------------0-2-4-4-2-4---------4-2---------2-------
D-----------2-2-----------------------------2-2-4-5-----4-5-2-2---------
A-----------------------------------------------------------------------
E-----------------------------------------------------------------------


e-------2-3-2---3-2-----2---------------2-2h3---3-2---------------------
B---3-5-------5-----5-3---5-3-------3-5-------5-----5-3---3-5-5-3-------
G-4---------------------------4-2-4-------------------------------------
D-----------------------------------------------------------------------
A-----------------------------------------------------------------------
E-----------------------------------------------------------------------


e-------2-2-3---3-2-----2---2-3-----------------------------------------
B---3-5-------5-----5-3---5---------------------------------------------
G-4-----------------------------0-2-4-4-2-4---------4-2-----------------
D-------------------------------------------2-2-4-5-----4-5-2-2---------
A---------------------------------------------------------------0-------
E-----------------------------------------------------------------------


Part 7

e-----------------------------------------------------------------------
B-----------------------------------------------------------------------
G-----------------------------------------------------------------------
D-----------------------------------------------------------------------
A-------10p9h10--------------------10p9-0h2-2-0-2---------2-0---------0-
E-10h12---------0-9-0-10-0-11-0-12----------------0-0-2-3-----2-3-0-0---


e-----------------------------------------------------------------------
B-----------------------------------------------------------------------
G-----------------------------------------------------------------------
D------------------------2-4-5-4-2-0------------------------------------
A--------------------2-0-------------2---2-0-2---------2-0---------0----
E-10h12-12-\\\-x-0-----------------------------0-0-2-3-----2-3-0-0------


e-----------------------------------------------------------------------
B-----------------------------------------------------------------------
G-------------------------------------------4---0---2-------------------
D---0-2-4-555-2-5-4-2-0-4-2-0-------0-2-4-5---5---4---4-0-0-2-2-0-------
A-2---------------------------2-0-2-------------------------------------
E-----------------------------------------------------------------------


e-----------------------------------------------------------------------
B-----------------------------------------------------------------------
G-----------4-------2---------------------------------------------------
D---0-2-4-5---5.--4---4-0-2-4-5-----------------------------------------
A-2-----------------------------0-2---2-0-2---------2-0-----------2-----
E-------------------------------------------0-0-2-3-----2-3.--2.--0-----