20140514

THE ROLLING STONES SYMPATHY FOR THE DEVIL SOLO TAB (GET YER YA-YA'S OUT)

Keith Richards & Mick Taylor's guitar solo in Sympathy For The Devil.
This particular solo is on the Get Yer Ya-Ya's Out album.
See the TAB under the video.



ROLLING STONES SYMPATHY FOR THE DEVIL SOLO TAB

PDF >>

Part 1

e-----------------------------------------------------------------------
B-----------------------------------------------------------------------
G-----------------------------------------------------------------------
D--------------------------5--------------------------5h7~--------------
A----------------------7--------------------------7---------------------
E-0---------------------------------------------------------------------


e-----------------------------------------------------------------------
B-----------------------------------------------------------------------
G-----------------------------------------------------------------------
D--------7-5------------------------------------------------------------
A----------------7~-----------------------------------------------------
E-----------------------------------------------------------------------


e-----------------------------------------------------------------------
B-----------------------------------------------------------------------
G-----------------------------------------------------------------------
D---------------------------------5'-------------------5h7~-------------
A-------------------/7.--/7.--7.-------------------7--------------------
E-///7.-----------------------------------------------------------------



e-----------------------------------------------------------------------
B-----------------------------------------------------------------------
G-----------------------------------------------------------------------
D-7-5-7-5---7/9~--------------------------------------------------------
A-----------------------------------------------------------------------
E-----------------------------------------------------------------------


e-----------------------------------------------------------------------
B-------------8'----------------------------10(12)-8-------8'-----------
G-----7.--9.--------9~------------------9.-----------9------------------
D-9.--------------------------------------------------------------------
A-----------------------------------------------------------------------
E-----------------------------------------------------------------------


e-----------------------------------------------------------------------
B-----10(12)---10(12)---10(12)-10.--8-10.--10(12)---8.------------------
G-9-----------------------------------------------------9-7.--9~--------
D-----------------------------------------------------------------------
A-----------------------------------------------------------------------
E-----------------------------------------------------------------------


e-----------------------------------------------------------------------
B-8-----10(12)---8-----10-8-------------8-\\\---------------------------
G-----9--------------9------9.--9~--------------------------------------
D-----------------------------------------------------------------------
A-----------------------------------------------------------------------
E-----------------------------------------------------------------------


e-----------------------------------------------------------------------
B-----8---8.----------8-\\\------10(12)-10(12)-10(12)-10(12)-10---------
G-7-9---9-----9~--------------------------------------------------------
D-----------------------------------------------------------------------
A-----------------------------------------------------------------------
E-----------------------------------------------------------------------


e-----------------------------------------------------------------------
B-10(12)-10.--8-10.--8'-------------------------------------------------
G-----------------------------------------------------------------------
D-----------------------------------------------------------------------
A-----------------------------------------------------------------------
E-----------------------------------------------------------------------


e-----------------------------------------------------------------------
B-------8-------8-------------8-----10(12)-8----------------------------
G-9-7-9---9-7-9---9-7-9.--9-----9.-------------9~-----------------------
D-----------------------------------------------------------------------
A-----------------------------------------------------------------------
E-----------------------------------------------------------------------


e------------10---------------------------------------------------------
B-10(12)--------(12)(10)---8-----10(12)-8-------------------------------
G----------------------------9.-----------9~----------------------------
D-----------------------------------------------------------------------
A-----------------------------------------------------------------------
E-----------------------------------------------------------------------


e-----------------------------------------------------------------------
B-8-----10(12).-8----------8-\\\----------------------------------------
G-----9-------------9~--------------------------------------------------
D-----------------------------------------------------------------------
A-----------------------------------------------------------------------
E-----------------------------------------------------------------------


e----------10-----------------------------------------------------------
B-10(12)------(12)(10)---8----------8-\\\-------------------------------
G----------------------------9~-----------------------------------------
D-----------------------------------------------------------------------
A-----------------------------------------------------------------------
E-----------------------------------------------------------------------


e----------10-----------------------------------------------------------
B-10(12)------(12)(10)---8----------8-\\\-------------------------------
G----------------------------9~-----------------------------------------
D-----------------------------------------------------------------------
A-----------------------------------------------------------------------
E-----------------------------------------------------------------------


e-12-----10-------------------------------------------------------------
B-------------8---------8-\\\------------------8'-----------------------
G-----------------9------------------------9---------9~-----------------
D-----------------------------------------------------------------------
A-----------------------------------------------------------------------
E-----------------------------------------------------------------------


Part 2

e-----------------------------------------------------------------------
B---------------12.-----------12.-----------12----------12--------------
G-12.--14(16)--------14(16)--------14(16)------14(16)-------------------
D-----------------------------------------------------------------------
A-----------------------------------------------------------------------
E-----------------------------------------------------------------------


e-----------------------------------------------------------------------
B-------12---------------12---------12.-----------12---------12---------
G-14(16)--14(16).--14(16)--14(16)--------14(16)-----14(16)-----(16)(14)-
D-----------------------------------------------------------------------
A-----------------------------------------------------------------------
E-----------------------------------------------------------------------


e-----------------------------------------------------------------------
B---------------------------14-------------------------------12-\\\-----
G-12-14-12----------12------14---12------14-12---------------12-\\\-----
D----------14~-----------14-----------14-------14.--14~-----------------
A-----------------------------------------------------------------------
E-----------------------------------------------------------------------


e------------------------12.----------------12.-----------12-15(17)-15~-
B------------------------------------------------15(17)-----------------
G-------12-14.--14(16)-------------14(16)-------------------------------
D-/14-------------------------------------------------------------------
A-----------------------------------------------------------------------
E-----------------------------------------------------------------------


e------12----12-12~-------12------12-12~------x-------12-\\\------------
B---------15-------------------15---------------------------------------
G-----------------------------------------------------------------------
D-----------------------------------------------------------------------
A-----------------------------------------------------------------------
E-----------------------------------------------------------------------


e-12---12---------------------------------------------------------------
B---------15-12----------------------12.-----------12---------12--------
G---------------14-12----12-14(16)--------14(16)-----14(16)-----(16)(14)
D---------------------14------------------------------------------------
A-----------------------------------------------------------------------
E-----------------------------------------------------------------------


e-----------------------------------------------------------------------
B-------------------12---------12---------12----------------------------
G-12----12-14(16)-----14(16)-----14(16)-----14(16)---14---12--12--------
D----14-----------------------------------------------------14----------
A-----------------------------------------------------------------------
E-----------------------------------------------------------------------


e-----------------------------------------------------------------------
B-----------------------------------------------------------------------
G-14(16).--12.------------12'-------14-12'------------------------------
D---------------14~------------14.------------14-\\\--------------------
A-----------------------------------------------------------------------
E-----------------------------------------------------------------------


Part 3

e--------------12.-------------------12.-----12.--------10.-------------
B-----------------------------------------------------------------------
G--------/13---------------------/13------13------/11-------------------
D-----------------------------------------------------------------------
A-----------------------------------------------------------------------
E-\\\\\-----------------------------------------------------------------


e----10.-----10.----9.----8.----7.----5.-----------3.-------------------
B-----------------------------------------------------------------------
G-11------11------9-----8-----7-----6-----2(4)--------------------------
D-----------------------------------------------------------------------
A-----------------------------------------------------------------------
E-----------------------------------------------------------------------


e--------------------------0.-------------------------------------------
B-3---------------------------------------------------------------------
G---2(4)-----(2)p0-----0h1----------------------------------------------
D------------------2.---------------------------------------------------
A-----------------------------------------------------------------------
E-----------------------------------------------------------------------


e-------12.------------16.-----14.--12.--------10.-----14.-----13.------
B-----------------------------------------------------------------------
G-/13---------------16------14------13.--/11--------14------13----------
D-----------------------------------------------------------------------
A-----------------------------------------------------------------------
E-----------------------------------------------------------------------


e----12.-----10.-----9.----8.----7.----5.--3p0.-------------12.---------
B-----------------------------------------------------------------------
G-12------11------/9-----8-----7-----6-----------11(13)-----------------
D-----------------------------------------------------------------------
A-----------------------------------------------------------------------
E-----------------------------------------------------------------------


e-----------------------------------------------------------------------
B-12--------------------------------------------------------------------
G----(13)---(11)p9----9-9~-----------------------------9h11p9~----------
D------------------11-----------------------------9-11------------------
A-----------------------------------------------------------------------
E-----------------------------------------------------------------------


e-----------------------------------------------------------------------
B---------12----12h14p12------------------------------------------------
G-11/13------13----------13\11---9----9h11p9---9~-----------------------
D----------------------------------11-----------------------------------
A-----------------------------------------------------------------------
E-----------------------------------------------------------------------


e------------------------------------------------10---------------------
B-----8h10-8'---------------8---10-8-10(12)---------(12)---(10)-8-------
G-7h9----------9-7-9~---------9-----------------------------------9~----
D-----------------------------------------------------------------------
A-----------------------------------------------------------------------
E-----------------------------------------------------------------------


e-----------------------------------------------------------------0-----
B-----10-8--------------------------------------------------------0-----
G----------9-7-9~----------7---9-7--------------------------------------
D----------------------7h9---9-----9\7-5---7-5--------------------------
A----------------------------------------7-----7-5-7-\\\----------------
E----------------------------------------------------------0------------


Part 4

e-------12.-------------------12.-----12.--------10.--------------------
B-----------------------------------------------------------------------
G-/13---------------------/13------13------/11--------------------------
D-----------------------------------------------------------------------
A-----------------------------------------------------------------------
E-----------------------------------------------------------------------


e-----10.-----10.----9.----8.----7.----5.----3---------0.---------------
B------------------------------------------------0----------------------
G-/11------11------9-----8-----7-----6-----4-------0h1------------------
D-----------------------------------------------------------------------
A-----------------------------------------------------------------------
E-----------------------------------------------------------------------


e-------12.-------------------12.-----12.--------10.--------------------
B-----------------------------------------------------------------------
G-/13---------------------/13------13------/11--------------------------
D-----------------------------------------------------------------------
A-----------------------------------------------------------------------
E-----------------------------------------------------------------------


e-----10.-----10.----9.----8.----7.----5.----3---------0.---------------
B------------------------------------------------0----------------------
G-/11------11------9-----8-----7-----6-----4-------0h1------------------
D-----------------------------------------------------------------------
A-----------------------------------------------------------------------
E-----------------------------------------------------------------------


e-----------------------------------------------------------------------
B-----8'--------------------------8.--10(12)(10)p8'---------------------
G-7h9------9~~~---------------7h9--------------------9-7-9~---9~--------
D-----------------------------------------------------------------------
A-----------------------------------------------------------------------
E-----------------------------------------------------------------------


e---------------------10------------------------------------------------
B-8---10-8-10(12)--------(12)-----(10)p8-----8p7------------------------
G---9------------------------------------9-------7---9~-----------------
D-----------------------------------------------------------------------
A-----------------------------------------------------------------------
E-----------------------------------------------------------------------


e-----------------------------------------------------------------------
B-------------------------------------------------8---10-8--------------
G-7---9-7---------------------------------7---7/9---9------9p7-9~-------
D---9-----9\7-5---7-5---------5---7-5-7/9---9---------------------------
A---------------7-----7-5-7-----7---------------------------------------
E-----------------------------------------------------------------------


e-------------------10--------------------------------------------------
B-8---10-8-10(12)------(12)-----(10)p8---10-8------8---10-8-------------
G---9----------------------------------9------9~-----9------9-7-9~------
D-----------------------------------------------------------------------
A-----------------------------------------------------------------------
E-----------------------------------------------------------------------


e-------------------10--------------------------------------------------
B-8---10-8-10(12)------(12)---(10)p8-10-8------15(17)-----15(17)--------
G---9-------------------------------------9.----------------------------
D-----------------------------------------------------------------------
A-----------------------------------------------------------------------
E-----------------------------------------------------------------------


e-----------------------------------------------------------------------
B-15(17)-----15(17)-----15(17)-----15(17)-----15(17)-----15(17)---------
G-----------------------------------------------------------------------
D-----------------------------------------------------------------------
A-----------------------------------------------------------------------
E-----------------------------------------------------------------------


e-----------------------------------------------------------------------
B-15(17)-----15(17)-----15(17)-----15(17)-----15(17)-----15(17)----(15)-
G-----------------------------------------------------------------------
D-----------------------------------------------------------------------
A-----------------------------------------------------------------------
E-----------------------------------------------------------------------


e-----------------------------------------------------------------------
B-----------------------------------------------------------------------
G---12'-----------------12----14-12---------12----12--------------------
D----------14~-------------14-------14~--------14-----------------------
A-----------------------------------------------------------------------
E-----------------------------------------------------------------------


e-----------------------------------------------------------------------
B-12(15)-----12(15)-----12(15)-----12(15)-----12(15)---(12)-------------
G-----------------------------------------------------------------------
D-----------------------------------------------------------------------
A-----------------------------------------------------------------------
E-----------------------------------------------------------------------


e-----------------------------------------------------------------------
B----------------------------------------10-12--------------------------
G-12-(14)-----(12)~---9----9---11(13)---------11(13)(11)p9--------------
D-----------------------11---------------------------------11-----------
A-----------------------------------------------------------------------
E-----------------------------------------------------------------------


e-------------9--------------------------------------12--12h14p12--12---
B---------------12--------------------------12--12h14--14--------14-----
G-9-11-(13)-------(13)-(11)p9--9-11-11/13-----13------------------------
D----------------------------11-----------------------------------------
A-----------------------------------------------------------------------
E-----------------------------------------------------------------------


e-15(17)-----15~---12--12-----------15-----------12----------------12---
B--------------------15--15(17)-------(17)(15)-12--15p12---------12--15-
G-------------------------------------------------------14(16)----------
D-----------------------------------------------------------------------
A-----------------------------------------------------------------------
E-----------------------------------------------------------------------


e-----------------------------------------------------------------------
B-12-------------------------------------------------------------12-----
G---14(16)(14)-12-14p12---14-12-------------12----14-12-14(16)----------
D----------------------14-------14-12-14~------14-----------------------
A-----------------------------------------------------------------------
E-----------------------------------------------------------------------


e-----------------------------------------------------------------------
B-15p12--15p12--15p12--15p12--15p12--15p12--15p12--15p12--15p12--15p12--
G------14-----14-----14-----14-----14-----14-----14-----14-----14-----14
D-----------------------------------------------------------------------
A-----------------------------------------------------------------------
E-----------------------------------------------------------------------


e---------------------------------------------15-----------12-----------
B-15p12--15p12--15p12--15p12--12---15(17)-------(17)(15)-12--15p12------
G------14-----14-----14-----14------------------------------------------
D-----------------------------------------------------------------------
A-----------------------------------------------------------------------
E-----------------------------------------------------------------------


e------------12---------------------------------------------------------
B----------12--15-12----------------------------------------------------
G-14(16)------------14(16)(14)-12-14p12---14-12-------------------------
D--------------------------------------14-------14-12-14----------------
A-----------------------------------------------------------------------
E-----------------------------------------------------------------------


e-----------------------------------------------------------------------
B---------15--15h17p15--------------------------------------------------
G-14/16-----16--------16\14-12-14p12--14-12------12----12---------------
D-----------------------------------14------14------14------------------
A-----------------------------------------------------------------------
E-----------------------------------------------------------------------


e----------12--------------15-------------------------------------------
B--------12--15(17)~---------(17)---(15)---12----12.--------------------
G-14(16)--------------------------------------14------------------------
D-----------------------------------------------------------------------
A-----------------------------------------------------------------------
E-----------------------------------------------------------------------


e-----------------------------------------------------------------------
B-15p12--15p12--15p12--15p12--15p12-----12.--15/17(19)------------------
G------14-----14-----14-----14-----14.----------------------------------
D-----------------------------------------------------------------------
A-----------------------------------------------------------------------
E-----------------------------------------------------------------------


e------12---------------------------------------------------------------
B-15.----12-15-------------12-------------------------------------------
G----------------14~---------12-14~---12'--------------12--14-12--------
D-------------------------------------------14-12-14-----14-------------
A-----------------------------------------------------------------------
E-----------------------------------------------------------------------


e-----------------------------------------------------------------------
B--------------15--------------15--------------15--------------15-------
G-14(16)----------14(16)----------14(16)----------14(16)----------------
D-----------------------------------------------------------------------
A-----------------------------------------------------------------------
E-----------------------------------------------------------------------


e-----------------------------------------------------------------------
B--------------15--------------15----------15----------15----------15---
G-14(16)----------14(16)----------14(16)------14(16)------14(16)--------
D-----------------------------------------------------------------------
A-----------------------------------------------------------------------
E-----------------------------------------------------------------------


e-----------------------------------------------------------------------
B-----------------------------------------------------------------------
G-14(16)---14-12----------------12----14-12-----------------------------
D----------------14~---------------14-------14-12-----------------------
A-------------------------------------------------14\12-10----12-\------
E----------------------------------------------------------12-----------


e-----------------------------------------------------------------------
B---------------------------------7---7.--7.--x-7-x-x-7---7-7-7-x-------
G---------9-----9-x-x-9-9-9-9-9-x-7---7.--7.--x-7-x-x-7---7-7-7-x-------
D---------9-----9-x-x-9-9-9-9-9-x-7---7.--7.--x-7-x-x-7---7-7-7-x-------
A---------7-----7-x-x-7-7-7-7-7-x-5---5.--5.--x-5-x-x-5---5-5-5-x-------
E-0---0-------0---x-x---------------------------------------------------


e-----------------------------------------------------------------------
B---------------------------------------------------------9-------------
G-6---6---6.--x-6-x-x-6---6-6-6-x---------9---x-9---x-9---9-------------
D-7---7---7.--x-7-x-x-7---7-7-7-x---------9---x-9---x-9---9-------------
A-7---7---7.--x-7-x-x-7---7-7-7-x---------7---x-7---x-7---7-------------
E-5---5---5.--x-5-x-x-5---5-5-5-x-0---0-------------------0-------------



Many people try to guess in the comments who actually played this solo Keith, Ronnie or Mick Taylor. Well, it doesn't matter while it sounds awesome ...