20140501

THE WALKING DEAD GAME OST 10 SPIRIT HEALING TAB


Nice and easy acoustic guitar playing in The Walking Dead's OST.
The name of the song is Spirit Healing.
See the TAB under the video.



THE WALKING DEAD GAME - SPIRIT HEALING TAB

PDF >>

  Em
e-----------------0-----------------------------------------------------
B-0-----------------------0---------------0-----------------------------
G-----------0-----------0-----------0-----------0-----------------------
D-------2-----------2-----------2-----------2---------------------------
A-2-----------2-----------2-----------2---------------------------------
E-----------------------------------------------------------------------


e-----------------------------------------------------------------------
B-0---------------0-----------------------0-----------------------------
G-----------0-----------0-----------0-----------0-----------------------
D-------2-----------2-----------2-----------2---------------------------
A-2-----------2-----------2-----------2---------------------------------
E-----------------------------------------------------------------------

  Am
e-----------------0-----------------------------------------------------
B-1-----------------------1---------------1-----------------------------
G-----------2-----------2-----------2-----------2-----------------------
D-------2-----------2-----------2-----------2---------------------------
A-0-----------0-----------0-----------0---------------------------------
E-----------------------------------------------------------------------



e-----------------------------------------------------------------------
B-1---------------1-------1---------------1-----------------------------
G-----------2-----------2-----------2-----------2-----------------------
D-------2-----------2-----------2-----------2---------------------------
A-0-----------0-----------0-----------0---------------------------------
E-----------------------------------------------------------------------


  G
e-----------------------------------------------------------------------
B-0---------------0-------0---------------0-----------------------------
G-----------0-----------0-----------0-----------0-----------------------
D-------0-----------0-----------0-----------0---------------------------
A-------------2-----------2-----------2---------------------------------
E-3---------------------------------------------------------------------

  Em
e-----------------0-----------------------------------------------------
B-0-----------------------0---------------0-----------------------------
G-----------0-----------0-----------0-----------0-----------------------
D-------2-----------2-----------2-----------2---------------------------
A-2-----------2-----------2-----------2---------------------------------
E-----------------------------------------------------------------------


e-----------------0-----------------------------------------------------
B-0-----------------------0---------------0-----------------------------
G-----------0-----------0-----------0-----------0-----------------------
D-------2-----------2-----------2-----------2---------------------------
A-2-----------2-----------2-----------2---------------------------------
E-----------------------------------------------------------------------

  Am
e-----------------------------------------------------------------------
B-1---------------1-------1---------------1-----------------------------
G-----------2-----------2-----------2-----------0-----------------------
D-------2-----------2-----------2-----------0---------------------------
A-0-----------0-----------0-----------0---------------------------------
E-----------------------------------------------------------------------

  G
e-----------------------------------------------------------------------
B-0---------------0-------0---------------0-----------------------------
G-----------0-----------0-----------0-----------0-----------------------
D-------0-----------0-----------0-----------0---------------------------
A-------------2-----------2-----------2---------------------------------
E-3---------------------------------------------------------------------

  Em
e-----------------------------------------------------------------------
B-0---------------0-------0---------------0-----------------------------
G-----------0-----------0-----------0-----------0-----------------------
D-------2-----------2-----------2-----------2---------------------------
A-2-----------2-----------2-----------2---------------------------------
E-----------------------------------------------------------------------

  C                       G
e-----------------------------------------------------------------------
B-1---------------1-------0---------------0-----------------------------
G-----------0-----------0-----------0-----------0-----------------------
D-------2-----------0-----------0-----------0---------------------------
A-3-----------3-----------------------2---------------------------------
E-------------------------3---------------------------------------------

  Am                      C
e-------------------------0---------------------------------------------
B-1---------------1-----------------1-----------1-----------------------
G-----------2-----------2-----------------0-----------------------------
D-------2-----------2-----------2---------------------------------------
A-0-----------0-----------3-----------3-----3---------------------------
E-----------------------------------------------------------------------

  C                       Em
e-----------------------------------------------------------------------
B-----------------1-------0---------------0-----------------------------
G-----------0-----------0-----------0-----------0-----------------------
D-2-----2-----------2-----------2-----------2---------------------------
A-3-----------3-----------2-----------2---------------------------------
E-----------------------------------------------------------------------

  Em
e-----------------0-----------------------------------------------------
B-0-----------------------0---------------0-----------------------------
G-----------0-----------0-----------0-----------0-----------------------
D-------2-----------2-----------2-----------2---------------------------
A-2-----------2-----------2-----------2---------------------------------
E-----------------------------------------------------------------------


e-----------------------------------------------------------------------
B-0---------------0-------0---------------0-----------------------------
G-----------0-----------0-----------0-----------0-----------------------
D-------2-----------2-----------2-----------2---------------------------
A-2-----------2-----------2-----------2---------------------------------
E-----------------------------------------------------------------------

  Am                      G
e-----------------------------------------------------------------------
B-1---------------1-----------------------0-----------------------------
G-----------2-----------2-0---------0-----------0-----------------------
D-------2-----------2-----------0-----------0---------------------------
A-0-----------0-----------------------2---------------------------------
E-------------------------3---------------------------------------------

  Em                      C
e-----------------0-----------------------------------------------------
B-0-----------------------1---------------1-----------------------------
G-----------0-----------0-----------0-----------0-----------------------
D-------2-----------2-----------2-----------2---------------------------
A-2-----------2-----------3-----------3---------------------------------
E-----------------------------------------------------------------------

  G                       Am
e-----------------------------------------0-----------------------------
B-0---------------0-------1---------------------------------------------
G-----------0-----------0-----------2-----------2-----------------------
D-------0-----------0-----------2-----------2--------------------------
A-------------2-----------0-----------0---------------------------------
E-3---------------------------------------------------------------------

  C
e-----------------------------------------------------------------------
B-1---------------1-------1---------------1-----------------------------
G-----------0-----------0-----------0-----------0-----------------------
D-------2-----------2-----------2-----------2---------------------------
A-3-----------3-----------3-----------3---------------------------------
E-----------------------------------------------------------------------

  Em                      Am 
e-----------------0-----------------------------------------------------
B-0-----------------------1---------------1-----------------------------
G-----------0-----------0-----------2-----------2-----------------------
D-------2-----------2-----------2-----------2---------------------------
A-2-----------2-----------0-----------0---------------------------------
E-----------------------------------------------------------------------

  G                       Em
e-------------------------0---------------------------------------------
B-0---------------0-----------------------0-----------------------------
G-----------0-----------0-----------0-----------0-----------------------
D-------0-----------0-----------2-----------2---------------------------
A-------------2-----------2-----------2---------------------------------
E-3---------------------------------------------------------------------

  G                       C
e-----------------------------------------------------------------------
B-0---------------0-------1---------------1-----------------------------
G-----------0-----------0-----------0-----------0-----------------------
D-------0-----------0-----------2-----------2---------------------------
A-------------2-----------3-----------3---------------------------------
E-3---------------------------------------------------------------------

  Am                      Em
e-----------------------------------------------------------------------
B-1---------------1-------0---------------0-----------------------------
G-----------2-----------2-----------0-----------0-----------------------
D-------2-----------2-----------2-----------2---------------------------
A-0-----------0-----------2-----------2---------------------------------
E-----------------------------------------------------------------------

  Em
e-----------------------------------------------------------------------
B-0---------------0-------0---------------0-----------------------------
G-----------0-----------0-----------0-----------0-----------------------
D-------2-----------2-----------2-----------2---------------------------
A-2-----------2-----------2-----------2---------------------------------
E-----------------------------------------------------------------------

  Em                      Am
e-----------------0-----------------------------------------------------
B-0---------0-------------1---------------1-----------------------------
G-----------------------0-----------2-----------2-----------------------
D-------2-----------2-----------2-----------2---------------------------
A-2-----------2-----------0-----------0---------------------------------
E-----------------------------------------------------------------------

  C                       G
e-----------------------------------------------------------------------
B-1---------------1-------0---------------0-----------------------------
G-----------0-----------0-----------0-----------0-----------------------
D-------2-----------2-----------0-----------0---------------------------
A-3-----------3-----------------------2---------------------------------
E-------------------------3---------------------------------------------

  E                       Am
e-----------------------------------------------------------------------
B-0---------------0-------1---------------1-----------------------------
G-----------1-----------0-----------2-----------2-----------------------
D-------2-----------2-----------2-----------2---------------------------
A-2-----------2-----------0-----------0---------------------------------
E-----------------------------------------------------------------------

  Am                      G
e-----------------------------------------------------------------------
B-1---------------0-------0---------------0-----------------------------
G-----------2-----------0-----------0-----------0-----------------------
D-2-----2-----------0-----------0-----------0---------------------------
A-0-----------0-----------------------2---------------------------------
E-------------------------3---------------------------------------------

  E                       Am
e-----------------------------------------------------------------------
B-0---------------0-------1---------------1-----------------------------
G-----------1-----------0-----------2-----------2-----------------------
D-------2-----------2-----------2-----------2---------------------------
A-2-----------2-----------0-----------0---------------------------------
E-----------------------------------------------------------------------

  C                       G
e-----------------------------------------3-----------------------------
B-1---------------1-------0---------------------------------------------
G-----------0-----------0-----------0-----------0-----------------------
D-------2-----------2-----------0-----------0---------------------------
A-3-----------3-----------------------2---------------------------------
E-------------------------3---------------------------------------------

  Am                      C
e-----------------------------------------------------------------------
B-1---------------1-------1---------------1-----------------------------
G-----------2-----------2-----------0-----------0-----------------------
D-------2-----------2-----------2-----------2---------------------------
A-0-----------0-----------3-----------3---------------------------------
E-----------------------------------------------------------------------

  E                       Am
e-----------------0-----------------------0-----------------------------
B-0-----------------------1---------------------------------------------
G-----------1-----------0-----------2-----------2-----------------------
D-------2-----------2-----------2-----------2---------------------------
A-2-----------2-----------0-----------0---------------------------------
E-----------------------------------------------------------------------

  Am                      C
e-----------------------------------------------------------------------
B-1---------------1-------1---------------1-----------------------------
G-----------2-----------2-----------0-----------0-----------------------
D-------2-----------2-----------2-----------2---------------------------
A-0-----------0-----------3-----------3---------------------------------
E-----------------------------------------------------------------------

  E                       Am
e-----------------------------------------0-----------------------------
B-0---------------0-------1---------------------------------------------
G-----------1-----------0-----------2-----------2-----------------------
D-------2-----------2-----------2-----------2---------------------------
A-2-----------2-----------0-----------0---------------------------------
E-----------------------------------------------------------------------

  Am                      C
e-----------------------------------------0-----------------------------
B-1---------------1-------1---------------------------------------------
G-----------2-----------2-----------0-----------0-----------------------
D-------2-----------2-----------2-----------2---------------------------
A-0-----------0-----------3-----------3---------------------------------
E-----------------------------------------------------------------------

  E                       Am
e-----------------------------------------0-----------------------------
B-0---------------0-------1-----------------------1---------------------
G-----------1-----------0-----------2-----------2-----------------------
D-------2-----------2-----------2-----------2---------------------------
A-2-----------2-----------0-----------0-----------0---------------------
E-----------------------------------------------------------------------