20140618

BLACK LABEL SOCIETY QUEEN OF SORROW TAB (LIVE ACOUSTIC VERSION AT GUITAR CENTER)

Black Label Society - Queen of Sorrow played live at Guitar Center.
Both - Zakk's and Nick's guitar in the background - are tuned one step down.
See the TAB of Zakk Wylde's awesome playing under the video.



BLACK LABEL SOCIETY QUEEN OF SORROW TAB

PDF >>

Chords

  Fm     G#     Eb     C#
d-3------x------1------3------------------------------------------------
A-3------3------1------4------------------------------------------------
F-3------3------2------3------------------------------------------------
C-5------3------3------5------------------------------------------------
G-5------5------3------6------------------------------------------------
D-3------6------1------x------------------------------------------------


Nick plays some chords a little different

  G#     C#         C#
d-x------x----------x---------------------------------------------------
A-3------4----------8---------------------------------------------------
F-3------3--- or ---8---------------------------------------------------
C-3------1----------8---------------------------------------------------
G-1------1----------6---------------------------------------------------
D-x------x----------x---------------------------------------------------


Solo

d-----------------------------------------------------------------------
A-------------------------------------------6---6h8-6~------------------
F--------------3---5/7.--5~-------5-3-5/7-----7-------------------------
C-3h5~---5-3-5---5------------------------------------------------------
G-----------------------------------------------------------------------
D-----------------------------------------------------------------------



d-----------------------------------------------------------------------
A-----------------------------------------------------------------------
F-7\5---3---3h5-3------------------3---5/7.--5~-------------------------
C---------5-------5-3-5~-------3-5---5----------------------------------
G-----------------------------------------------------------------------
D-----------------------------------------------------------------------


d-----------------------------------------------------------------------
A-----------6---6h8-6~--------------------------------------------------
F-5-3-5/7-----7------------7\5---3---3h5-3------------------------------
C----------------------------------5-------5-\\\------------------------
G-----------------------------------------------------------------------
D-----------------------------------------------------------------------


Intro

Fm / G# / Eb / C# /


Solo


Verse

Fm / G# / Eb / C# /
Fm / G# / Eb / C# /
Fm / G# / Eb / C# /
Fm / G# / Eb / C# /


Chorus

G# / Eb / Fm / C# /
G# / Eb / Fm / C# /


Solo


Verse


Chorus


Bridge

d-3-----3-3-3-----------------------------------------------------------
A-3-----3-3-3-3---------------------------------------------------------
F-0-----0-0-0-0----------------------------   8x   ---------------------
C-0-----0-0-0-0---------0---0---0---------------------------------------
G-2-----2-2-2-1-----1/4---3---1-----------------------------------------
D-3-----3-3-3-----------------------------------------------------------



Solo


Chorus


Final solo

d-----------------------------------------------------------------------
A-------------------------------------------6---6h8-6~------------------
F--------------3---5/7.--5~-------5-3-5/7-----7-------------------------
C-3h5~-----3-5---5------------------------------------------------------
G-----------------------------------------------------------------------
D-----------------------------------------------------------------------


d-----------------------------------------------------------------------
A-----------------------------------------------------------------------
F-7\5---3---5-3-------------3---3---5/7.--5~----------------------------
C---------5-----5p3-3h5-5-5---5---5-------------------------------------
G-----------------------------------------------------------------------
D-----------------------------------------------------------------------


d-----------------------------------------------------------------------
A-----------6---6h8-6~--------------------------------------------------
F-5-3-5/7-----7------------7\5---3---5-3--------------------------------
C----------------------------------5-----5p3----------------------------
G-----------------------------------------------------------------------
D-----------------------------------------------------------------------


d-----------------------------------------------------------------------
A------------------------------------------6---6h8-6~-------------------
F---------3---3---5/7.--5~-------5-3-5/7-----7--------------------------
C-3h5-5-5---5---5-------------------------------------------------------
G-----------------------------------------------------------------------
D-----------------------------------------------------------------------


d-----------------------------------------------------------------------
A-----------------------------------------------------------------------
F-7\5---3---5-3-----------------3---5/7.--5~----------------------------
C---------5-----5p3-3h5-5-5-3-5---5-------------------------------------
G-----------------------------------------------------------------------
D-----------------------------------------------------------------------


d---------------------------------------------3-------------------------
A-----------6---6h8-6~------------------------3-------------------------
F-3-3-5/7-----7-------------7\5-3-------------3-------------------------
C---------------------------------5-3---------5-------------------------
G-------------------------------------5-4-3-1-5-------------------------
D---------------------------------------------3-------------------------