20140622

DIE TOTEN HOSEN NUR ZU BESUCH TAB (FINGERSTYLE GUITAR TAB)

Die Toten Hosen - Nur Zu Besuch fingerstyle guitar cover played by Lakewoodplayer
It's in standard tuning with Capo on the 2nd fret
Download the TAB below



NUR ZU BESUCH FINGERSTYLE TAB

GP5 + GP6 + PDF >>

- CAPO on the 2nd -
Intro

e-----------------------------------------------------------------------
B-----------------------------------------------------------------------
G-----2-----2---2-----2-----2---2-----2-----2---2-----------------------
D---2-----2---------2-----2---------2-----2-----------------------------
A-0-----0-----0---0-----0-----0---0-----0-----0---0---------------------
E-----------------------------------------------------------------------


Verse

e-----------------------------------------------------------------------
B-----------0---1p0-----------------0h1-1-1---1--p0---------------------
G---2-2-2-------------2-------------2-----------------0-----------------
D---2---------------2-------------2---------------------------0---------
A---------------0-------------0---------------------------0h2-----------
E-----------------------------------------------3---------------3-------


e---------------------------------------------------------0-------------
B---0---1---0---------------0---------0h1-0---------0--h1---------------
G---0-----------2---2---2-------2-----------2---------------------------
D-0-----------0---------------0-------------------2---------------------
A-------------------------0-------------------0---------------0---------
E-----------------------------------------------------------------------




e-----------------------------------------------------------------------
B---------0---1p0-----------------0h1-1-1---1--p0-----------------------
G-----2-------------2-------------2-----------------0-------------------
D---2-------------2-------------2---------------------------0-----------
A-------------0-------------0---------------------------0h2-------------
E---------------------------------------------3---------------3---------


e-------------------------------------------------------0---------------
B---0---0h1-0---------------0---------0h1-0---------1-------------------
G---0-----------2---2---2-------2-----------2---------------------------
D-0-----------0---------------0-------------------2---------------------
A-------------------------0-------------------0-------------0-----------
E-----------------------------------------------------------------------





DOWNLOAD THE COMPLETE TAB HERE



  • click 'Free Download'
  • add your e-mail address
  • you will get an e-mail with your download links (in a few seconds)
  • download the Guitar Pro 6 tab + GP5 + PDF for free
  • and that's all ...


Guitar Pro: a complete workshop for guitarists at an affordable price