20140622

DIE TOTEN HOSEN NUR ZU BESUCH TAB (FINGERSTYLE VERSION)

Nice fingerstyle acoustic guitar version of Nur Zu Besuch by Die Toten Hosen.
This is a popular german song, many thanks Lakewoodplayer for the uploading.
The YouTube video contains only the audio with some pictures ...
See the TAB under the video.


DIE TOTEN HOSEN NUR ZU BESUCH TAB

PDF >>

Part 1

  B5
e-----------------------------------------------------------------------
B-----------------------------------------------------------------------
G-----4-----4---4-----4-----4---4-----4-----4---4-----------------------
D---4-----4---------4-----4---------4-----4-----------------------------
A-2-----2-----2---2-----2-----2---2-----2-----2---2---------------------
E-----------------------------------------------------------------------


Part 2


  Bsus2         Bm                              A
e-----------------------------------------------------------------------
B-----0-----2---3p2-----------------2h3-3-3---3--p2---------------------
G---4---4-------------4-------------4-----------------2-----------------
D---4---------------4-------------4---------------------------2---------
A---------------2-------------2-----------------0---------2h4---0-------
E-----------------------------------------------------------------------

                                              Bm
e---------------------------------------------------------2-------------
B---2---3---2---0---0---0---2---0-----2h3-2-0-------2--h3---------------
G---2-------------------------------------------------------------------
D-2-----------2---------------2-------------------4---------------------
A-------------------------2-------------------2---------------2---------
E-----------------------------------------------------------------------



e-----------------------------------------------------------------------
B---------2---3p2-----------------2h3-3-3---3--p2-----------------------
G-----4-------------4-------------4-----------------2-------------------
D---4-------------4-------------4---------------------------2-----------
A-------------2-------------2-----------------0---------2h4---0---------
E-----------------------------------------------------------------------


e-------------------------------------------------------2---------------
B---2---2h3-2---0---0---0---2---0-----2h3-2-0-------3-------------------
G---2-------------------------------------------------------------------
D-2-----------2---------------2-------------------4---------------------
A-------------------------2-------------------2-------------2-----------
E-----------------------------------------------------------------------



DOWNLOAD THE COMPLETE TAB HERE





  • click 'Buy Now' and send $6  (or 'Add to Cart' if you want to buy more tabs)
  • add your e-mail address
  • you will get a confirmation e-mail with your download links (in a few seconds)
  • download the full Guitar Pro 6 tab + GP5 + PDF
  • then start to learn the full song - that's all ...

IF YOU DIDN'T GET YOUR DOWNLOAD LINK, PLEASE CONTACT US HERE >>

SEND YOUR GUITAR TAB REQUEST HERE >>
MORE ON GUITAR TABS A-Z >>

Guitar Pro: a complete workshop for guitarists at an affordable price