20140615

HANSEL PETHIG ALBATROSS TAB (FINGERSTYLE GUITAR COVER)

Hansel Pethig's nice fingerstyle guitar cover of Peter Green - Albatross.
He uses Dropped D tuning + delay. The song is in 3/4.
Download the GP6, GP5 and PDF files below.



HANSEL PETHIG ALBATROSS TAB 

GP5 + GP6 + PDF >> 

Part 1

e-------3---2-------------3---2-----------------------------------------
B-------3---2-------------3---2-----------------------------------------
G-------4---2-------------4---2-----------------------------------------
D-------0---0-------------0---0-----------------------------------------
A-0-----0-----------------0---------------------------------------------
D-------0---------0-0---0-0---------0-0---0-0---0-----------------------


e-------3---2-------------3---2-----------------------------------------
B-------3---2-------------3---2-----------------------------------------
G-------4---2-------------4---2-----------------------------------------
D-------0---0-------------0---0-----------------------------------------
A-0-----0-----------------0---------------------------------------------
D-------0---------0-0---0-0---------0-0---0-0---0-----------------------


e-----------------------------------------------------------------------
B-----------------------------------------------------------------------
G-----------------------------------------------------------------------
D-----0-4---2-----------------0-/4---2----------------------------------
A-0h2---------------------0h2-------------------------------------------
D-------2-----2---2-2---2--------2-----2---2-2---2----------------------



e-----------------------------------------<12>--------------------------
B------------------------------------<12>-------------------------------
G------------------------------------------------<7>--------------------
D-----0-/4---0-----------0-2---0----------------------------------------
A-0h2-------------------------------------------------------------------
D--------0-----0---0-0-----0-----0---------0---------0---0--------------


Part 2

e-------3---2-------------3---2-------9h10-9~---------------------------
B-------3---2-------------3---2-----------------------------------------
G-------4---2-------------4---2-----------------------------------------
D-------0---0-------------0---0-----------------------------------------
A-----0-0-----------------0---------------------------------------------
D-0-----0---------0-0---0-0---------0-0------0---0----------------------


e-------3---2-------------3---2-------12---9~---------------------------
B-------3---2-------------3---2-----------------------------------------
G-------4---2-------------4---2-----------------------------------------
D-------0---0-------------0---0-----------------------------------------
A-0-----0-----------------0---------------------------------------------
D-------0---------0-0---0-0---------0-0------0---0----------------------


e-----------------------------------------------------------------------
B-----------------------------------------------------------------------
G-----------------------------2-4---------------------------------------
D-----0-4---2-------------2h4-----4---2---------------------------------
A-0h2---------------------------------------------0---------------------
D-------2-----2---2-2---2-2-------2-----2---2-2-------------------------


e-------------------------------------------<12>------------------------
B--------------------------------------<12>-----------------------------
G--------------------------------------------------<7>------------------
D-----0---/4---0-----------0-2---0--------------------------------------
A-0h2---2---------------------------------------------------------------
D----------0-----0---0-0-----0-----0---------0---------0---0------------




DOWNLOAD THIS TAB IN GUITAR PRO



  • click 'Free Download'
  • add your e-mail address
  • you will get an e-mail with your download links (in a few seconds)
  • download the Guitar Pro 6 tab + GP5 + PDF for free
  • and that's all ...


Guitar Pro: a complete workshop for guitarists at an affordable price