20140702

ALAN MENKEN ALADDIN A WHOLE NEW WORLD TAB (INSTRUMENTAL GUITAR COVER BY CHAMACOJESUS)

There is a masterpiece played by Chamacojesus with a single classical guitar.
The song is Alan Menken's Aladdin A Whole New World. Chamacojesus has already shared a tablature in his blog but it did not cover his awesome playing note-for-note.
See the note-for-note TAB under the video.


CHAMACOJESUS ALADDIN A WHOLE NEW WORLD TAB

PDF >>

Part 1    Dropped D tuning

e-----------------------------------------------------------------------
B-7-----------7---------------8-------------------10------8-------------
G-6-----------6---------------7-----------------------------------------
D-7-------7-----------7.------8---------------7-------7-------7---------
A-----------------------------0-----------------------------------------
D-0---------------0-----------------------------------------------------


e-----------------------------------------------------------------------
B-7-----------7---------------8-------------------10------8-------------
G-6-----------6---------------7-----------------------------------------
D-7-------7-----------7.------8---------------7-------7-------7---------
A-----------------------------0-----------------------------------------
D-0---------------0-----------------------------------------------------


Part 2

e-----------------------------------------------------------------------
B-7-----------7h8-----7-------------------7-------10------8-------------
G---------9---------------7-p-6-------6-----------7-----------7---------
D-----7---------------------------7-----------7---8---8-----------------
A-------------------------0-----------------------0---------------------
D-0---------------0---------------0-------------------------------------



e-----------------------------------------------------------------------
B-7-----------7h8-----7-----------7---------------5---------------------
G---------9------------------7----------------7-----------6-------------
D-----7-----------------------------------5-------5---------------------
A-------------------------------------5---------------------------------
D-0---------------0-------0-----0-5---------------7-----------7---------


e-0-------------------0-------------------------------------------------
B-------------6/7---------2-------5-------3-------2-------3-------------
G---------7-------------------3---------------2---------------0---------
D-----8-----------8-------------------4---------------2-----------------
A---------------------------------2---------------0---------------------
D-8-----------8-----------4---------------------------------------------


e-----------------------------------------------------------------------
B-0-------2---2h5-----3-------------------7-----------8-----------------
G-0-------0---0-------0-------------------6-----------7-----------------
D-----0-----------------------4/7-----7-----------7---8-----------------
A-----------------------------------------------------0-----------------
D-5---------------5-------5-------0-----------0-------------------------


Part 3

e-----------------------------------------------------------------------
B-7-----------7h8-----7-------------------------------------------------
G-6-------9---------------7---\---2-------------------------------------
D-7---7-------------------7---\---4-------2---4h5-----4---0-------------
A-------------------------0-----------0-------------------1-p-0---------
D-0---------------0---------------0---------------0---------------------


e-----------------------------------------------------------------------
B-7-----------7h8-----7-----------7---------------5---------------------
G-6-------9------------------7----7-----------7-----------6-------------
D-7---7----------------------7------------5-------5-------5-------------
A-------------------------------------5---------------------------------
D-0---------------0-------0-----0-5---------------7-----------0---------



DOWNLOAD THE COMPLETE TAB HERE





  • click 'Buy Now' and send $6  (or 'Add to Cart' if you want to buy more tabs)
  • add your e-mail address
  • you will get a confirmation e-mail with your download links (in a few seconds)
  • download the full Guitar Pro 6 tab + GP5 + PDF
  • then start to learn the full song - that's all ...

IF YOU DIDN'T GET YOUR DOWNLOAD LINK, PLEASE CONTACT US HERE >>

SEND YOUR GUITAR TAB REQUEST HERE >>
MORE ON GUITAR TABS A-Z >>

Guitar Pro: a complete workshop for guitarists at an affordable price