20140718

ALICE IN CHAINS DON'T FOLLOW TAB (FINGERSTYLE COVER BY PHIL JAKES)

Phil Jakes plays a brilliant fingerstyle guitar cover of Don't Follow by Alice Chains.
He is using Dropped C# tuning (that is C# G# C# F# A# D#) 
See the TAB under the video.



ALICE IN CHAINS DON'T FOLLOW TAB

PDF >>

Part 1

D#---------2---------------2---------------0----------------------------
A#---3-------3-------3-------3-------3-------3-----3p2-----2------------
F#-----2---------2-----2---------2-----0---------0-----2-----2---2------
C#-------0-----0---------0-----0---------0-----0---------2-----2--------
G#-------------------------------------------------0--------------------
C#-0---------------4---------------5------------------------------------


D#---------2---------------2---------------0----------------------------
A#---3-------3-------3-------3-------3-------3-----3p2-----2------------
F#-----2---------2-----2---------2-----0---------0-----2-----2---2------
C#-------0-----0---------0-----0---------0-----0---------2-----2--------
G#-------------------------------------------------0--------------------
C#-0---------------4---------------5------------------------------------


D#---------2---------------2---------------0----------------------------
A#-----3-----3-------3-------------------3---3--------------------------
F#-2-------------2-----2-----4p2---2p0-----------0----------------------
C#-------0-----0---------0-------0-----0-------0---5\4-4\2-2-2/4--------
G#-------------------------------------------------0--------------------
C#-0---------------4---------------5------------------------------------



D#---------2---------------2---------------0----------------------------
A#-----3-----3-------3-------3-------3-------3-----3p2-----2------------
F#-2-------------2-----2---------2-----0---------0-----2-----2---0------
C#-------0-----0---------0-----0---------0-----0---------2-----2--------
G#-------------------------------------------------0--------------------
C#-0---------------4---------------5------------------------------------


D#---------2---------------2---------------0----------------------------
A#-----3-----3-------3-------------------3---3--------------------------
F#-2-------------2-----2-----4p2---2p0---------0-0----------------------
C#-------0-----0---------0-------0-----0-----------5\4-4-2---2/4--------
G#-------------------------------------------------0--------------------
C#-0---------------4---------------5------------------------------------


D#---------2---------------2---------------0----------------------------
A#-----3-----3-------3-------3---------3-----3-----3p2-----2------------
F#-2-------------2-----2---------2---0-----------0-----2-----2---2------
C#-------0-----0---------0-----0---------0-----0---------2-----2--------
G#-------------------------------------------------0--------------------
C#-0---------------4---------------5------------------------------------


D#-------2---------2-----2-----2---2------------------------------------
A#-3-------3-----3-3-------3-5-3---3-0-3-----3---3-3p--2---2---2-2h3----
F#-2-----------2---------------------0-4-----4---4-4p--2---2---2-2------
C#-----0-----0-----------------------------0----------------------------
G#-------------------------------------------------0-----0---0----------
C#-0---------------4---4-----------5-----5-----5------------------------


D#---2-----2---------------2---------------0----------------------------
A#-----3-----3-------3-------3-------3-------3---0----------------------
F#---------------2-----2---------2-----0-------0------------------------
C#-------0-----0---------0-----0---------0---------5---5-4.--2-2/4.-----
G#-------------------------------------------------0--------------------
C#-0---------------4---------------5------------------------------------


D#---------3---------------3--------------------------------------------
A#-------3---3---3-------3---3-----3p2-----2----------------------------
F#-----0-------0-------0---------0-----2-----2--------------------------
C#-2p0---------------0---------0---------2-----2---5---5-4.--2---2------
G#---------------------------------0-------------0----------------------
C#-5---------------5----------------------------------------------------


Part 2

D#---------2---------------2---------------0----------------------------
A#-----3-----3-------3-------3---------3-----3-----3p2-----2------------
F#-------2-------2-----2---------2---0---0-------0-----2-----2---2------
C#-2p0---------0---------0-----0---------------0---------2-----2--------
G#-------------------------------------------------0--------------------
C#-0---------------4---------------5------------------------------------


D#---------2---------------2---------------0----------------------------
A#---3-------3-------3-------3-------3-------3-----3p2-----2------------
F#-----2---------2-----2---------2-----0---------0-----2-----2---2------
C#-------0-----0---------0-----0---------0-----0---------2-----2--------
G#-------------------------------------------------0--------------------
C#-0---------------4---------------5------------------------------------


D#-------2---------------2-----------------3----------------------------
A#-3-------3-----------3---3-----------------3--------------------------
F#-----------2---2---2-------4p2-2-2p0---0-------0----------------------
C#-----0-------0-----------------------0-------0---5\4-4-2---2/4--------
G#-------------------------------------------------0--------------------
C#-0---------------4---------------5------------------------------------


D#---------2---------------2---------------0----------------------------
A#-------3---3-------3-------3-------3-------3-----3p2-----2------------
F#-----2---------2-----2---------0-----0---------0-----2-----2---0------
C#-2p0---------0---------0-----0---------0-----0---------2-----2--------
G#-------------------------------------------------0--------------------
C#-0---------------4---------------5------------------------------------


D#---------2---------------2---------------0----------------------------
A#-----3-----3-------3-------------------3---3--------------------------
F#-2-------------2-----2-----4p2---2p0-0---------0----------------------
C#-------0-----0---------0-------0-------------0---5\4-4-2---2/4--------
G#-------------------------------------------------0--------------------
C#-0---------------4---------------5------------------------------------


D#---------2---------------2---------------0----------------------------
A#-------3---3---------3-----3-------3-------3-----3-2h3p2----2---------
F#-----2---------2---2---2-------0-----0---------0--------2-----2---0---
C#-2p0---------0---------------0---------0-----0------------2-----2-----
G#-------------------------------------------------0--------------------
C#-0---------------4---------------5------------------------------------


D#-------2---------2-----2-----2---2------------------------------------
A#-3-------3-----3-3-----3---5-3---3-0-3-----3---3-3p--2---2---2-2h3----
F#-2-----------2-------0-------------0-4-----4---4-4p--2---2---2-2------
C#-----0-----0-----------------------------0----------------------------
G#-------------------------------------------------0-----0---0----------
C#-0---------------4-------0-----x-5-----5-----5------------------------


D#---2-----2---------------2---------------0----------------------------
A#-----3-----3-------3-------3-------3-------3---0----------------------
F#---------------2-----2---------0-----0-------0------------------------
C#-------0-----0---------0-----0---------0---------5---5-4.--2-2/4.-----
G#-------------------------------------------------0--------------------
C#-0---------------4---------------5------------------------------------


D#---------3---------------3--------------------------------------------
A#-------3---3---3-------3---3-----3-2h3p2----2-------------------------
F#-----0-------0-------0---------0--------2-----2-----------------------
C#-2p0---------------0---------0------------2-----2--/5---5-4\2---2-----
G#---------------------------------0----------------0-------------------
C#-5---------------5----------------------------------------------------


D#-----2----------------------------------------------------------------
A#-----3----------------------------------------------------------------
F#-----2----------------------------------------------------------------
C#-2p0-0----------------------------------------------------------------
G#-----0----------------------------------------------------------------
C#-0---0----------------------------------------------------------------


Part 3

D#-0---0-0-0---0-0---0-0---0-0-0-0--2---2-0-2---0-2---0-2---2-2-2-2-----
A#-2---2-0-2---0-2---0-2---2-2-2-2--3---3-3-3---3-3---3-3---3-3-3-3-----
F#-2---2-2-2---2-2---2-2---2-2-2-2--2---2-2-2---2-2---2-2---2-2-2-2-----
C#-2---2-2-2---2-2---2-2---2-2-2-2--0---0-0-0---0-0---0-0---0-0-0-0-----
G#-0---0-0-0---0-0---0-0---0-0-0-0--------------------------------------
C#----------------------------------------------------------------------


D#-0---0-0-0---0-0---0-0---0-0-0-0--2---2-0-2---0-2---0-2---2-2-2-2-----
A#-2---2-0-2---0-2---0-2---2-2-2-2--3---3-3-3---3-3---3-3---3-3-3-3-----
F#-2---2-2-2---2-2---2-2---2-2-2-2--2---2-2-2---2-2---2-2---2-2-2-2-----
C#-2---2-2-2---2-2---2-2---2-2-2-2--0---0-0-0---0-0---0-0---0-0-0-0-----
G#-0---0-0-0---0-0---0-0---0-0-0-0--------------------------------------
C#----------------------------------------------------------------------


D#-0---0-0-0---0-0---0-0---0-0-0-0--2---2-0-2---0-2---0-2---2-2-2-2-----
A#-2---2-0-2---0-2---0-2---2-2-2-2--3---3-3-3---3-3---3-3---3-3-3-3-----
F#-2---2-2-2---2-2---2-2---2-2-2-2--2---2-2-2---2-2---2-2---2-2-2-2-----
C#-2---2-2-2---2-2---2-2---2-2-2-2--0---0-0-0---0-0---0-0---0-0-0-0-----
G#-0---0-0-0---0-0---0-0---0-0-0-0--------------------------------------
C#----------------------------------------------------------------------


D#-0---0-0-0---0-0---0-0---0-0-0-0--2---2-0-2---0-2---0-2---------------
A#-2---2-0-2---0-2---0-2---2-2-2-2--3---3-3-3---3-3---3-3-----3/5-5-----
F#-2---2-2-2---2-2---2-2---2-2-2-2--2---2-2-2---2-2---2-2---------------
C#-2---2-2-2---2-2---2-2---2-2-2-2--0---0-0-0---0-0---0-0---------------
G#-0---0-0-0---0-0---0-0---0-0-0-0--------------------------0-----------
C#----------------------------------------------------------------------


D#----------------------------------------------------------------------
A#-5---5---5-5---5---5---5p3-3-3---3---3---3---1-3/5--3/5--3---1h3p1----
F#-2---2---2-2---2---2---2---2-2---2---2---2-----0----0----2--------2---
C#---------------------------------------0------------------------------
G#-0-----0-0---0-------0-0-------0-----------------------------------0--
C#---------------------------------0-------0--------0----0-0------------


D#---------------3------------------------------------------------------
A#-5---5---5---------5---5p3-3-3---3---3---3-----3/5----1-----1---------
F#-2---2---2---2-----2---2---2-2---2---2---2----------2---------2-0-----
C#---------------------------------------0-----0------------------------
G#-0-----0---------0-----0-------0--------------------------------------
C#---------------------------------0-------0--------0-----0-0-----------


D#-5-----5-5---3-5---3h5p3----------------------------------------------
A#-2---2-2-2-----2--------5-5p3-3-3-3-3---3---3-3-1-3/5.-3/5.-3/4--3-1--
F#-----2--------------------2---2-2-2-2---2---------------------------2-
C#--------------------------------0-0-0-----0---------------------------
G#-0-------0-----0--------0-------0-0-0---------------------------------
C#--------------------------------0-0-0----------------0------0---------


D#-----------------------------------------------0---0---3---3-3/5-3----
A#--2---2---2-----2---2---2-----2---3---3---3----3---3---3---3-3--------
F#--2---2---2-----2---2---2---2-2-2-2---2---2---------------------------
C#----------------------------------------------0--0---0---0------------
G#--0-----0-----0---0---0---0-------------------------------------------
C#----------------------------------0-----0-0---------------------------


D#-5-3-5-3h5p3-------3---3---3-3-3-3-0-2-------2-----5---5----5-5-3-5-3-
A#-2-2-2-2-----5---5-2---2---2-2-2-2-0-3-------3-----3---3----3-3-3-3-3-
F#-------------2---2-2---2---2-2-2-2-0-2-------2-----2---2--------------
C#-----------------2-2---2---2-2-2-2-0-0---0-0-0---0---------0----------
G#-0-----------0-----0---0---0-0-0-0-0-0---0-0-0---0---------0----------
C#-------------------------------------0---0-0-0---0---------0----------


D#-5-3-5-3h5p3-------3---3-3-3-3-3-3-0-2-------2-----0-0-----0-0--------
A#-2-2-2-2-----5---5-2---2-2-2-2-2-2-0-3-------3-----3---3---3---3------
F#-------------2---2-2---2-2-2-2-2-2-0-2-------2-----------2-------2-0--
C#-----------------2-2---2-2-2-2-2-2-0-0---0-0-0---0-------0------------
G#-0-----------0-----0---0-0-0-0-0-0-0-0---0-0-0---0--------------------
C#-------------------------------------0---0-0-0---0--------------------


D#---------------------------------2---------------0-------3------------
A#-3p2-----2---------2-2-2-2-2-2-0-3-----3---------3-------3------------
F#-----2-2-2---2-----2-2-2-2-2-2-0-2-----2-2-----------2-------2--------
C#-----2-2-2-----2---2-2-2-2-2-2-0-0---0-----0-0-0---0---0---0---0------
G#-0---0-0-0-----0---0-0-0-0-0-0-0-0------------------------------------
C#---------------------------------0------------------------------------


D#---------------------------------------------------0-------3----------
A#-3---2h3p2-2-----2---2-----2---2h3-3-------3-----3-------3-3----------
F#-2---2-----2-2---2---2-----2---2---2-----2-2---2-------2---------0----
C#---------------2---------2-------------0-----0-------0---------0------
G#-0---------0-----0-----0-----0----------------------------------------
C#-----------------------------------0----------------------------------


The End

D#--------------------------3----------------------------------3--------
A#-3p2-----2--------------3---3-----3-2h3p2----2-----------3-----3---3--
F#-----2-----2---0------0---------0--------2-----2---0---0---0-----0----
C#-------2-----2------0---------0------------2-----2--------------------
G#-0--------------------------------0-----------------------------------
C#-----------------/5----------------------------------5----------------


D#---------3--------------------------------------------2---------------
A#---3---3---3---3-3p2-----2----------------------------3---------------
F#-----0-------0-------2-----2--------------------------2---------------
C#-----------------------2-----2---/5---5-4\2---2---2p0-0---------------
G#-----------------0-------------0----------------------0---------------
C#-5------------------------------------------------0---0---------------