20140720

OF MONSTERS AND MEN DIRTY PAWS TAB


There is a nice guitar intro part in Dirty Paws by Of Monsters And Men.
Basically there are a few popular chords with a CAPO on the 3rd.
See the TAB under the video.



OF MONSTERS AND MEN DIRTY PAWS TAB

PDF >>

Intro

e-----------------------------------------------------------------------
B-----------------------------------------------------------------------
G-------------2---------------0---------------0---------------0---------
D-----2---------------2---------------0h2-------------2-----------------
A-0-------0-------0-------0-------3-------3-------3-------3-------------
E-----------------------------------------------------------------------


e-----------------------------------------------------------------------
B---------------------------------------------1---------------1---------
G-------------0---------------0-------0h2-------------2-----------------
D-----2---------------2-----------3-------3-------3-------3-------------
A-3-------3-------3-------3---------------------------------------------
E-----------------------------------------------------------------------


e-----------------------------------------------------------------------
B-----------------------------------------------------------------------
G-------------2---------------0---------------0---------------0---------
D-----2---------------2---------------0h2-------------2-----------------
A-0-------0-------0-------0-------3-------3-------3-------3-------------
E-----------------------------------------------------------------------



e-----------------------------------------------------------------------
B---------------------------------------------1---------------1---------
G-------------0---------------0-------0h2-------------2-----------------
D-----2---------------2-----------3-------3-------3-------3-------------
A-3-------3-------3-------3---------------------------------------------
E-----------------------------------------------------------------------


Verse

e-----------------------------------------------------------------------
B-----------------------------------------------------------------------
G-------------2---------------0---------------0---------------0---------
D-----2---------------2---------------0h2-------------2-----------------
A-0-------0-------0-------0-------3-------3-------3-------3-------------
E-----------------------------------------------------------------------


e-----------------------------------------------------------------------
B---------------------------------------------1---------------1---------
G-------------0---------------0-------0h2-------------2-----------------
D-----2---------------2-----------3-------3-------3-------3-------------
A-3-------3-------3-------3---------------------------------------------
E-----------------------------------------------------------------------


e-----------------------------------------------------------------------
B-----------------------------------------------------------------------
G-------------2---------------0---------------0---------------0---------
D-----2---------------2---------------0h2-------------2-----------------
A-0-------0-------0-------0-------3-------3-------3-------3-------------
E-----------------------------------------------------------------------


e-----------------------------------------------------------------------
B---------------------------------------------1---------------1---------
G-------------0---------------0-------0h2-------------2-----------------
D-----2---------------2-----------3-------3-------3-------3-------------
A-3-------3-------3-------3---------------------------------------------
E-----------------------------------------------------------------------


e-----------------------------------------------------------------------
B-----------------------------------------------------------------------
G-------------2---------------0---------------0---------------0---------
D-----2---------------2---------------0h2-------------2-----------------
A-0-------0-------0-------0-------3-------3-------3-------3-------------
E-----------------------------------------------------------------------


e-----------------------------------------------------------------------
B---------------------------------------------1---------------1---------
G-------------0---------------0-------0h2-------------2-----------------
D-----2---------------2-----------3-------3-------3-------3-------------
A-3-------3-------3-------3---------------------------------------------
E-----------------------------------------------------------------------


e-----------------------------------------------------------------------
B-----------------------------------------------------------------------
G-------------2---------------0---------------0---------------0---------
D-----2---------------2---------------0h2-------------2-----------------
A-0-------0-------0-------0-------3-------3-------3-------3-------------
E-----------------------------------------------------------------------


e-----------------------------------------------------------------------
B-----------------------------------------------------------------------
G-------------0---------------0-------2---------------------------------
D-----2---------------2-----------3-------------------------------------
A-3-------3-------3-------3---------------------------------------------
E-----------------------------------------------------------------------


All verse chords

e-0-------0-------0-------0---------------------------------------------
B-1-------1-------1-------1---------------------------------------------
G-2-------0-------0-------2---------------------------------------------
D-2-------2-------2-------3---------------------------------------------
A-0-------3-------3-------3---------------------------------------------
E---------3-------3-----------------------------------------------------


Chorus

  La      La      La
e-0---------------0-----------------------------------------------------
B-1---------------1-----------------------------------------------------
G-2-------0-------0-----------------------------------------------------
D-2-------0-------2-----------------------------------------------------
A-0-------2-------3-----------------------------------------------------
E-----------------3-----------------------------------------------------

  La      La      La              La
e-0---------------------------------------------------------------------
B-1-------1-------1---------------0-------------------------------------
G-0-------2-------2---------------0-------------------------------------
D-2-------3-------2---------------0-------------------------------------
A-3-------3-------0---------------2-------------------------------------
E-3-------------------------------3-------------------------------------