20140713

SLASH & MYLES KENNEDY SWEET CHILD O' MINE TAB (ACOUSTIC, LIVE, MAX SESSIONS)

Slash and Myles Kennedy play Sweet Child O' Mine on the Australian Max Sessions.
Two acoustic guitars in half step down tuning and Myles' voice.
See the TAB of Slash's playing under the video.


SLASH & MYLES KENNEDY SWEET CHILD O' MINE TAB

PDF >>

Part 1

D#-------------15----14----------------15----14-------------------------
A#----15----------------------15----------------------------------------
F#-------14-12----14----14-------14-12----14----14----------------------
C#-12----------------------12-------------------------------------------
G#----------------------------------------------------------------------
D#----------------------------------------------------------------------


D#-------------15----14----------------15----14-------------------------
A#----15----------------------15----------------------------------------
F#-------14-12----14----14-------14-12----14----14----------------------
C#-14----------------------14-------------------------------------------
G#----------------------------------------------------------------------
D#----------------------------------------------------------------------



D#-------------15----14----------------15----14-------------------------
A#----15----------------------15----------------------------------------
F#-12----14-12----14----14-12----14-12----14----14----------------------
C#----------------------------------------------------------------------
G#----------------------------------------------------------------------
D#----------------------------------------------------------------------



D#-------------15----14----------------15----14-------------------------
A#----15----------------------15----------------------------------------
F#-------14-12----14----14-------14-12----14----14----------------------
C#-12----------------------12-------------------------------------------
G#----------------------------------------------------------------------
D#----------------------------------------------------------------------


D#-------------15----14----------------15----14-------------------------
A#----15----------------------15----------------------------------------
F#-------14-12----14----14-------14-12----14----14----------------------
C#-12----------------------12-------------------------------------------
G#----------------------------------------------------------------------
D#----------------------------------------------------------------------


D#-------------15----14----------------15----14-------------------------
A#----15----------------------15----------------------------------------
F#-------14-12----14----14-------14-12----14----14----------------------
C#-14----------------------14-------------------------------------------
G#----------------------------------------------------------------------
D#----------------------------------------------------------------------


D#-------------15----14----------------15----14-------------------------
A#----15----------------------15----------------------------------------
F#-12----14-12----14----14-12----14-12----14----14----------------------
C#----------------------------------------------------------------------
G#----------------------------------------------------------------------
D#----------------------------------------------------------------------


D#-------------15----14----------------15----14-------------------------
A#----15----------------------15----------------------------------------
F#-------14-12----14----14-------14-12----14----14----------------------
C#-12----------------------12-------------------------------------------
G#----------------------------------------------------------------------
D#----------------------------------------------------------------------


D#-------------15----14----------------15----14-------------------------
A#----15----------------------15----------------------------------------
F#-------14-12----14----14-------14-12----14----14----------------------
C#-12----------------------12-------------------------------------------
G#----------------------------------------------------------------------
D#----------------------------------------------------------------------


D#-------------15----14----------------15----14-------------------------
A#----15----------------------15----------------------------------------
F#-------14-12----14----14-------14-12----14----14----------------------
C#-14----------------------14-------------------------------------------
G#----------------------------------------------------------------------
D#----------------------------------------------------------------------


D#-------------15----14----------------15----14-------------------------
A#----15----------------------15----------------------------------------
F#-12----14-12----14----14-12----14-12----14----14----------------------
C#----------------------------------------------------------------------
G#----------------------------------------------------------------------
D#----------------------------------------------------------------------


D#-12----------12----14----15----14----12-------------------------------
A#-------15----------------------------------15-------15----------------
F#----14----14----14----14----14----14----14-------14-------------------
C#----------------------------------------------12----------------------
G#----------------------------------------------------------------------
D#----------------------------------------------------------------------


Part 2

D#----10--------------------10------------------------------------------
A#---------13------------------13---------------------------------------
F#------------12------------------12------------------------------------
C#-10------------------------------------10.----------------------------
G#----------------------------------------------------------------------
D#----------------------------------------------------------------------


D#-------5---------------5---------------5------------------------------
A#-----8-----8---------8-----8---------7-----7---7----------------------
F#---7---------7-----7-----------7---7---------7------------------------
C#-5-------------5-------------5---0------------------------------------
G#----------------------------------------------------------------------
D#----------------------------------------------------------------------


D#-2-----2---------3-2-----3-2-0-----------------0----------------------
A#-3---------3---3-------3-------3-------3-----------3-----3------------
F#-2-----------2-----------------------0---------------0-----0---0------
C#-0---0---------------0-------------2-------2-----------2-----2--------
G#---------------------------------3-----------3------------------------
D#----------------------------------------------------------------------


D#---------------0---------0-------0h2---2-------3---2-----0h2-/--------
A#---------3---------3-------3-----3---------3---------3---3---/--------
F#-----0---------------0-------0---2-----------------------2---/--------
C#-------0-----0---------0-------0-0---0-------0---------0-0---0-0------
G#-0h2------------------------------------------------------------------
D#-3--------------------------------------------------------------------


Part 3

D#-------------------------------------12----10-------------------------
A#----14-------15----14-------13----------------------------------------
F#-------14-------14----14-------12-10----12----12----------------------
C#-11-------14-------------10-------------------------------------------
G#----------------------------------------------------------------------
D#----------------------------------------------------------------------


D#-------------15----14----------------15----14-------------------------
A#----15----------------------15----------------------------------------
F#-------14-12----14----14-------14-12----14----14----------------------
C#-12----------------------12-------------------------------------------
G#----------------------------------------------------------------------
D#----------------------------------------------------------------------


D#-------------------------------------12----10-------------------------
A#----14-------15----14-------13----------------------15~---------------
F#-------14-------14----14-------12-10----12----12/14-------------------
C#-11-------14-------------10-------------------------------------------
G#----------------------------------------------------------------------
D#----------------------------------------------------------------------


Part 4

D#----------------------------------------------------------------------
A#----------------------------------------------------------------------
F#-14-12~---------------14-12~------------------------------------------
C#------------16~------------------16~----------------------------------
G#----------------------------------------------------------------------
D#----------------------------------------------------------------------


D#----------------------------------------------------------------------
A#----------------------------------------------------------------------
F#-12h14-12~---------------14-12~-------------------12h14-12~-----------
C#---------------14~------------------14~-------------------------------
G#----------------------------------------------------------------------
D#----------------------------------------------------------------------


D#----------------------------------------------------------------------
A#----------------------15-15(17)---(15)--------------------------------
F#-(15)(14)p12-14(16)---------------------------------------------------
C#-----------------------------------------15(16)-----------------------
G#----------------------------------------------------------------------
D#----------------------------------------------------------------------


D#----------------------------------------------------------------------
A#------------------------------15--------------------------------------
F#---------------------------14-----------------------------------------
C#-(16)-(15)---12h14-12-12----------------------------------------------
G#----------------------------------------------------------------------
D#----------------------------------------------------------------------


Part 5

D#----------------------------------------------------------------------
A#----------------------------15----------------------------------------
F#-------------------------14----14-------------------------------------
C#----------------------------------------------------------------------
G#----------------------------------------------------------------------
D#----------------------------------------------------------------------


D#-10-10-------------------------10-10----------------------------------
A#------13-13---------------13-13-----13-13-----------------------------
F#-----------12-12-----12-12---------------12-12------------------------
C#----------------10-10-------------------------10-10-10-\--------------
G#----------------------------------------------------------------------
D#----------------------------------------------------------------------


D#-5-5-5--------------------5-5-5--------5-5----------------------------
A#------8-8-8--------------------8-8-8------8-8-8-----------------------
F#-----------7-7-7-----7-7-7----------7-7-------------------------------
C#----------------5-5-5-------------------------------------------------
G#----------------------------------------------------------------------
D#----------------------------------------------------------------------


D#-------3---------3-------3--------------------------------------------
A#-----7-----7-------7-------7------------------------------------------
F#---7---------7-------7-------7----------------------------------------
C#-0-------------0-------0-------0--------------------------------------
G#----------------------------------------------------------------------
D#----------------------------------------------------------------------


D#-2-----2-----------------3-2-0-----------------0----------------------
A#-3---------3---3---3---3-------3-------3-----------3-----3------------
F#-2-----------2-------2---------------------0---------0-----0---0------
C#-0---0-----------0-------------------2-------2---------2-----2--------
G#---------------------------------3------------------------------------
D#----------------------------------------------------------------------


D#---------------0---------0-------2-----2-------3---2-----0h2-/--------
A#---------3---------3-------3-----3---------3---------3---3---/--------
F#-----0---------------0-------0---2-----------------------2---/--------
C#-------0-----0---------0-------0-0---0-------0---------0-0---0-0------
G#-0h2------------------------------------------------------------------
D#-3--------------------------------------------------------------------


Part 6

D#-------------------------------------12----10-------------------------
A#----14-------15----14-------13----------------------------------------
F#-------14-------14----14-------12-10----12----12----------------------
C#-11-------14-------------10-------------------------------------------
G#----------------------------------------------------------------------
D#----------------------------------------------------------------------


D#-------------15----14----------------15----14-------------------------
A#----15----------------------15----------------------------------------
F#-------14-12----14----14-------14-12----14----14----------------------
C#-12----------------------12-------------------------------------------
G#----------------------------------------------------------------------
D#----------------------------------------------------------------------


D#-------------------------------------12----10-------------------------
A#----14-------15----14-------13----------------------15~---------------
F#-------14-------14----14-------12-10----12----12/14-------------------
C#-11-------14-------------10-------------------------------------------
G#----------------------------------------------------------------------
D#----------------------------------------------------------------------


Part 7

D#----------------------------------------------------------------------
A#----------------------------------------------------------------------
F#-14-12~---------------14-12~------------------------------------------
C#------------16~------------------16~----------------------------------
G#----------------------------------------------------------------------
D#----------------------------------------------------------------------


D#----------------------------------------------------------------------
A#----------------------------------------------------------------------
F#-12h14-12~---------------14-12~-------------------12h14-12~-----------
C#---------------14~------------------14~-------------------------------
G#----------------------------------------------------------------------
D#----------------------------------------------------------------------


D#-------------------------------------------------------10-------------
A#----------------------------------------------------------------------
F#-12(14)(12)~-----------11(12)(11)----11(12)--------------11(12)(11)~--
C#----------------------------------12----------------------------------
G#----------------------------------------------------------------------
D#----------------------------------------------------------------------


D#----------------------------------------------------------------------
A#--------------------------------------------15.--15\13---13-15/17~----
F#-14-12~---------------14-12~--------14/16-----------------------------
C#------------16~------------------16-----------------------------------
G#----------------------------------------------------------------------
D#----------------------------------------------------------------------


D#----------------------------------------------------------------------
A#-17-17-\-15-----15---13---12(13)(12)----------------------------------
F#---------------------------------------12-----------------------------
C#------------------------------------------12~-------------------------
G#----------------------------------------------------------------------
D#----------------------------------------------------------------------


D#----------------------------------------------------------------------
A#---------------------------15-15(17)-----(15).------------------------
F#----14(16)(14)p12-14(16)----------------------------------------------
C#-12-------------------------------------------------------------------
G#----------------------------------------------------------------------
D#----------------------------------------------------------------------


D#----------17-17--------17-17--------17-17--------17-17----------------
A#-17(19)---------17(19)-------17(19)-------17(19)-------17(19)(17)-----
F#----------------------------------------------------------------------
C#----------------------------------------------------------------------
G#----------------------------------------------------------------------
D#----------------------------------------------------------------------


Part 8

D#-5.--x-5-----5-5-8.---x-8----8--8--8--2-------------------------------
A#-5.--x-5-----5-5-8.---x-8----8--8--8--3-------------------------------
F#-6.--x-6-----6-6-9.---x-9----9--9--9--2-------------------------------
C#-7.--x-7-----7-7-10.--x-10---10-10-10-0-------------------------------
G#-7.--x-7-----7-7-10.--x-10---10-10-10---------------------------------
D#-5.--x-5-----5-5-8.---x-8----8--8--8----------------------------------


D#-2(3)---2-------------------------------------------------------------
A#----------3-----------------------------------------------------------
F#------------2-0-------------------------------------------------------
C#----------------4-0---------------------------------------------------
G#--------------------4-------------------------------------------------
D#----------------------------------------------------------------------


D#-5.--x-5---5-5-5-8.---x-8----8--8--\--2-------------------------------
A#-5.--x-5---5-5-5-8.---x-8----8--8--\--3-------------------------------
F#-6.--x-6---6-6-6-9.---x-9----9--9--\--2-------------------------------
C#-7.--x-7---7-7-7-10.--x-10---10-10-\--0-------------------------------
G#-7.--x-7---7-7-7-10.--x-10---10-10-\----------------------------------
D#-5.--x-5---5-5-5-8.---x-8----8--8--\----------------------------------


D#----------------------------------------------------------------------
A#-x-x-3-----3-----3---3-----3-----x-x----------------------------------
F#-x-x-0h2---0h2---0h2-0h2---0h2---x-x----------------------------------
C#-x-x-0-----0-----0---0-----0-----x-x----------------------------------
G#----------------------------------------------------------------------
D#----------------------------------------------------------------------


D#-5.--x-5---5-5-5-8.---x-8----8--8--\--2-------------------------------
A#-5.--x-5---5-5-5-8.---x-8----8--8--\--3-------------------------------
F#-6.--x-6---6-6-6-9.---x-9----9--9--\--2-------------------------------
C#-7.--x-7---7-7-7-10.--x-10---10-10-\--0-------------------------------
G#-7.--x-7---7-7-7-10.--x-10---10-10-\----------------------------------
D#-5.--x-5---5-5-5-8.---x-8----8--8--\----------------------------------


D#---2(3)-2-------------------------------------------------------------
A#----------3-----------------------------------------------------------
F#------------2-0-------------------------------------------------------
C#----------------4-0---------------------------------------------------
G#--------------------4-------------------------------------------------
D#----------------------------------------------------------------------


D#-5.--x-5---5-5-5-8.---x-8----8--8--\----------------------------------
A#-5.--x-5---5-5-5-8.---x-8----8--8--\----------------------------------
F#-6.--x-6---6-6-6-9.---x-9----9--9--\--7---------------7---7---7-------
C#-7.--x-7---7-7-7-10.--x-10---10-10-\--7---7-7-7-7-7-7-7-7-7-7-7-7-0---
G#-7.--x-7---7-7-7-10.--x-10---10-10-\--5---5-5-5-5-5-5-5-5-5-5-5-5-0---
D#-5.--x-5---5-5-5-8.---x-8----8--8--\----------------------------------


Part 9

D#-17(19)~~~-----15.-14--h15p14-12~-------------------------------------
A#----------------------------------------------------------------------
F#----------------------------------------------------------------------
C#----------------------------------------------------------------------
G#----------------------------------------------------------------------
D#----------------------------------------------------------------------


D#-15.-14--h15p14p12-11---12---14---------------------------------------
A#--------------------------------(17)-(15)-12.-------------------------
F#----------------------------------------------14(16)(14)-12.----------
C#----------------------------------------------------------------------
G#----------------------------------------------------------------------
D#----------------------------------------------------------------------


D#----------------------------------------------------------------------
A#-----------------------------------13.--12--h13p12p10-----------------
F#-11--h12p11-------------11-12-14--------------------------------------
C#------------14~-------------------------------------------------------
G#----------------------------------------------------------------------
D#----------------------------------------------------------------------


D#---------------------------------------------------15(17)---15~--\----
A#-13(15)-----13~---12.-12~---------12(13)(12)---10.--------------------
F#----------------------------------------------------------------------
C#----------------------------------------------------------------------
G#----------------------------------------------------------------------
D#----------------------------------------------------------------------


D#----------------------------------------------------------------------
A#-7(8)(7)------------7(8)(7)-------------------------------------------
F#-----------9-9~---------------9-9~---8(9)-------8~------/11~----------
C#----------------------------------------------------------------------
G#----------------------------------------------------------------------
D#----------------------------------------------------------------------


D#----------------------------------------------------------------------
A#----------------------------------------------------------------------
F#-11(12)(11)---9-5---4---5---5/9~--------------------------------------
C#----------------------------------------------------------------------
G#----------------------------------------------------------------------
D#----------------------------------------------------------------------


D#------------------------------------------------------------------8---
A#-7(8)(7)-------------------------------------------7h8p7---7-10/12-12-
F#-----------9-9~---8(9)-------8~------11~--------8-9------9------------
C#----------------------------------------------------------------------
G#----------------------------------------------------------------------
D#----------------------------------------------------------------------


D#-11h12-8-11-12/14-11-12-14/15-12-14-15-14-12----14----12h14p12----12--
A#---------------------------------------------15----15----------15-----
F#----------------------------------------------------------------------
C#----------------------------------------------------------------------
G#----------------------------------------------------------------------
D#----------------------------------------------------------------------


D#----------------------------------------------------------------------
A#-15(17)(15)p12----15(17)~~~-------------------------------------------
F#---------------14-----------------------------------------------------
C#----------------------------------------------------------------------
G#----------------------------------------------------------------------
D#----------------------------------------------------------------------


D#----------------------------------------------------------------------
A#-15(17)-15-12----15(17)--15(17)--15(17)--15(17)~~~--------------------
F#--------------14------------------------------------------------------
C#----------------------------------------------------------------------
G#----------------------------------------------------------------------
D#----------------------------------------------------------------------


D#----------------------------------------------------------------------
A#-15(17)-15p12----17(19)-------17(19)-------17(19)-------17(20)--------
F#--------------14------------------------------------------------------
C#----------------------------------------------------------------------
G#----------------------------------------------------------------------
D#----------------------------------------------------------------------


D#----------------------------------------------------------12----------
A#-19~~~----------17(19)(17)p15----15h17~--------15(17)----------15.-12-
F#------------------------------16--------------------------------------
C#----------------------------------------------------------------------
G#----------------------------------------------------------------------
D#----------------------------------------------------------------------


D#----------------------------------------------------------------------
A#----------------------------------------------------------------------
F#-14~~~--p12-14~~~--p12-14~-----12.-14-(16)-----12.--14---12.----------
C#----------------------------------------------------------------------
G#----------------------------------------------------------------------
D#----------------------------------------------------------------------


D#---------------------15--------------------15--------------------15---
A#----------15--------------------15--------------------15--------------
F#-14(16)-----14(16)-----14(16)-----14(16)-----14(16)-----14(16)--------
C#----------------------------------------------------------------------
G#----------------------------------------------------------------------
D#----------------------------------------------------------------------


D#----------------------------------------------------------------------
A#----------------------------------------------------------------------
F#-(16)(14)p12----14p12-------12'---------------------------------------
C#-------------14-------14-12---------14p12-14~-------------------------
G#----------------------------------------------------------------------
D#----------------------------------------------------------------------


D#----------------------------------------------------------------------
A#----------------------------------------------------------------------
F#-------12-14p12----12'------------------------------------------------
C#-14-14----------14---------14p12-14~----------------------------------
G#----------------------------------------------------------------------
D#----------------------------------------------------------------------


D#----------------------------------------------------------------------
A#-------------------------------------------12-12-------15-15p12-15----
F#-------12-14p12----12-12-------14-14p12----------14p12----------------
C#-14-14----------14-------14p12----------14----------------------------
G#----------------------------------------------------------------------
D#----------------------------------------------------------------------


D#-12-15p12----15-15p12----14h15-12h14p12----12-------------------------
A#----------15----------15----------------15----15(17)(15)p12-----------
F#------------------------------------------------------------14--------
C#----------------------------------------------------------------------
G#----------------------------------------------------------------------
D#----------------------------------------------------------------------


D#----------12--------------12-------------12--------------12-----------
A#-15(17)------12--------12----12-15(17)------12--------12----12--------
F#----------------14(16)-------------------------14(16)-----------------
C#----------------------------------------------------------------------
G#----------------------------------------------------------------------
D#----------------------------------------------------------------------


D#----------12--------------12-------------12--------------12-----------
A#-15(17)------12--------12----12-15(17)------12--------12----12--------
F#----------------14(16)-------------------------14(16)-----------------
C#----------------------------------------------------------------------
G#----------------------------------------------------------------------
D#----------------------------------------------------------------------


D#-15.---15(17)---15(17)---15(17)-15-14-15-14(15)-14-12-14----12--------
A#---------------------------------------------------------15-----------
F#----------------------------------------------------------------------
C#----------------------------------------------------------------------
G#----------------------------------------------------------------------
D#----------------------------------------------------------------------


D#----------12----------------------------------------------------------
A#-15(17)------15-12----------------------------------------------------
F#-------------------14/15\14p12-14p12----------------------------------
C#-------------------------------------14-12----------------------------
G#-------------------------------------------14-13-12\10----------------
D#-------------------------------------------------------12~------------


Part 10    (where do we go ... )

D#-------7-10.--10.--10~------------------------------------------------
A#-----8----------------------------------------------------------------
F#-7h9------------------------------------------------------------------
C#----------------------------------------------------------------------
G#----------------------------------------------------------------------
D#----------------------------------------------------------------------


D#-------7-10.--7--------------------7~---------------------------------
A#-----8----------10(12)-10-8---8h10------------------------------------
F#-7h9------------------------9-----------------------------------------
C#----------------------------------------------------------------------
G#----------------------------------------------------------------------
D#----------------------------------------------------------------------


D#-2(3)--2-0---2(3)--2--0-2-0-------------------------------------------
A#-----------3----------------3/5---------------------------------------
F#----------------------------------------------------------------------
C#----------------------------------------------------------------------
G#----------------------------------------------------------------------
D#----------------------------------------------------------------------


D#----------------------------------------------------------------------
A#----------------------------------------------------------------------
F#---------------------------------4------------------------------------
C#-4-5-7-5-4---5---4h5p4---4-----5---7-5--------------------------------
G#-----------7---7-------7---5h7---------7p5-7~-------------------------
D#--------------------------------------------------7\--3---------------


D#----------------------------------------------------------------------
A#-------------------------------------8-----10-8---10(12)(10)p8-10p8---
F#---------------------------7---9-7-----9-7------9------------------9p7
C#-------------5-7-5-----7/9---9-----9----------------------------------
G#---------5-7-------7-5------------------------------------------------
D#-3-5-6-7--------------------------------------------------------------


D#----------------------------------------------------------------------
A#----------------------------------------------------------------------
F#-9-9p7---7h9p7---7h9p7---9-9p7---9-9p7---9-9p7---9-9p7---12-12p9------
C#-------9-------9-------9-------9-------9-------9-------9---------12---
G#----------------------------------------------------------------------
D#----------------------------------------------------------------------


D#------------------------------12--------------------------------------
A#----------------------15(17)----15-12h15p12--12-----------------------
F#-12-12p9---14-14p12-14---------------------14--14(16)(14)p12--14--12--
C#---------12-------------------------------------------------14--------
G#----------------------------------------------------------------------
D#----------------------------------------------------------------------


D#----------12.---------------------------------------------------------
A#-15(17)--------15----------------------------------15(17)~~~----------
F#------------------14(15)(14)p12-14p12-14p12---------------------------
C#-------------------------------------------14-12----------------------
G#----------------------------------------------------------------------
D#----------------------------------------------------------------------


D#----------------------------------------------------------------------
A#-15(17)-----15(17)-----15(17)-15(17)---15(17)---15(17)---15(17)~~~-\\\
F#----------------------------------------------------------------------
C#----------------------------------------------------------------------
G#----------------------------------------------------------------------
D#----------------------------------------------------------------------


D#----------------7----------7----------7----------7----------7---------
A#-----8-10(12)-----10(12)-----10(12)-----10(12)-----10(12)-------------
F#-7h9------------------------------------------------------------------
C#----------------------------------------------------------------------
G#----------------------------------------------------------------------
D#----------------------------------------------------------------------


D#----------7----------7------------------------------------------------
A#-10(12)-----10(12)-----10(12).---10(12).---10(12)-10~---8-10.---8'----
F#----------------------------------------------------------------------
C#----------------------------------------------------------------------
G#----------------------------------------------------------------------
D#----------------------------------------------------------------------


D#----------------------------------------------------------------------
A#----------------------------------------------------------------------
F#-9p7-9~---------------------------------------------------------------
C#----------------------------------------------------------------------
G#----------------------------------------------------------------------
D#----------------------------------------------------------------------


D#-12-----------------12-----------------12-----------------------------
A#----15p12--------12----15p12--------12----15p12--------12-------------
F#----------14(16)-------------14(16)-------------14(16)----------------
C#----------------------------------------------------------------------
G#----------------------------------------------------------------------
D#----------------------------------------------------------------------


D#-12-----------------12-----------------12-----------------------------
A#----15p12--------12----15p12--------12----15p12--------12-------------
F#----------14(16)-------------14(16)-------------14(16)----------------
C#----------------------------------------------------------------------
G#----------------------------------------------------------------------
D#----------------------------------------------------------------------


D#-12-----------------12-15p14-15-12h14----12---------------------------
A#----15p12--------12-------------------15----13-15-12-15-13-15-12h13p12
F#----------14(16)------------------------------------------------------
C#----------------------------------------------------------------------
G#----------------------------------------------------------------------
D#----------------------------------------------------------------------


D#----------------------------------------------------------------------
A#----12----------------------------------------------------------------
F#-14----14(16)-14p12----14-12-------14(16)(14)p12----------------------
C#--------------------14-------14-12---------------14.--14~-------------
G#----------------------------------------------------------------------
D#----------------------------------------------------------------------


D#----------------------------------------------------------------------
A#--------------------------------------------12--------12--------------
F#-------------------12----14-12-------14(16)----14(16)----12~----------
C#-------12----12h14----14-------14-12----------------------------------
G#-12h14----14----------------------------------------------------------
D#----------------------------------------------------------------------


D#----------------------------------------------------------------------
A#--------------12--------12-------14----------12-----------------------
F#-------14(16)----14(16)----12~---14-12-------12-----------------------
C#-14-12---------------------------------14-12------14.-----------------
G#----------------------------------------------------------------------
D#----------------------------------------------------------------------

   now       now      now     now        now    now ....
D#----------------------------------------------------------------------
A#-15(17)-----15~-----12~-----------------------------------------------
F#----------------------------14(16)-----14~-----12~--------------------
C#----------------------------------------------------------------------
G#----------------------------------------------------------------------
D#----------------------------------------------------------------------


D#----------------------------------------------------------------------
A#---------15----15-----------------------------------------------------
F#-14/16------16----16\14p12----14-12-----------------------------------
C#---------------------------14-------14-12-14~-------------------------
G#----------------------------------------------------------------------
D#----------------------------------------------------------------------


D#----------------------------------------------------------------------
A#---------15-----------------------------------------------------------
F#-14/16------16\14p12-14p12-14p12--------------------------------------
C#---------------------------------14-12-14-p12------14~~---------------
G#---------------------------------------------14-12--------------------
D#----------------------------------------------------------------------


D#----------------------------------------------------------------------
A#----------------------------------------------------------------------
F#-4~~~~----------------------------------------------------------------
C#----------------------------------------------------------------------
G#------------------------------10~~~~----------------------------------
D#----------------------------------------------------------------------


D#----------------------------------------------------------------------
A#----------------------------------------------------------------------
F#----------------------------------------------------------------------
C#----------------------------------------------------------------------
G#-5h7-----7---7---7---7---7---7-......---------------------------------
D#-0-----0---0---0---0---0---0---......---------------------------------


D#----------------------------------------------------------------------
A#----------------------------------------------------------------------
F#----------------------------------------------------------------------
C#----------------------------------------------------------------------
G#--\2-----2-2-2-2-2----------------------------------------------------
D#-------------------/5---5---5---5---3---333333333333333333333333.....-


D#---------------------0------------------------------------------------
A#---------------------0------------------------------------------------
F#---------------------0------------------------------------------------
C#-000000000.----------2------------------------------------------------
G#-xxxxxxxxx.----------2------------------------------------------------
D#-333333333.----------0------------------------------------------------