20140810

BC RICH AVENGE SON OF BEAST ELECTRIC GUITAR TAB (EMAN ON SI EREHT BY EDDIE)

"Here's Eddie I from 'Hands Like Glass' shredding on a BC Rich Avenge Son of Beast electric guitar."  The name of the song is Eman On Si Ereht (in dropped C# tuning !!! )
See the TAB under the video ...


BC RICH AVENGE SON OF BEAST ELECTRIC GUITAR TAB

PDF >>

D#----------------------------------------------------------------------
A#----------------------------------------------------------------------
F#----------------------------------------------------------------------
C#-0--------------------------------------------------------------------
G#-0--------------------------------------------------------------------
C#-0------\\\\---////---------------------------------------------------


D#----------------------------------------------------------------------
A#----------------------------------------------------------------------
F#----------------------------------------------------------------------
C#-8---8-8---8-8-8---8-8-8---8-7-7-5---5-5---5-5-5---5-5-5---5-3-3-3----
G#-8---8-8---8-8-8---8-8-8---8-7-7-5---5-5---5-5-5---5-5-5---5-3-3-3----
C#-8---8-8---8-8-8---8-8-8---8-7-7-5---5-5---5-5-5---5-5-5---5-3-3-3----


D#----------------------------------------------------------------------
A#----------------------------------------------------------------------
F#----------------------------------------------------------------------
C#---------------------------3---3--------------------------------------
G#---------------------------3---3--------------------------------------
C#-0-0-000-0-0-000-0-0-000-0-3-0-3---0-0-0-0-000-0-000-0-0-000-000------
   x x xxx x x xxx x x xxx x   x     x x x x xxx x xxx x x xxx xxx



D#----------------------------------------------------------------------
A#----------------------------------------------------------------------
F#----------------------------------------------------------------------
C#---------------7---------------------------------5-------7-7-7-5------
G#-----8---7h8-------8---7---10-10p8-----8---7h8-------8-----------8----
C#-8-8---8-----8---8---8---8---------5-5---5-----5---5---5--------------
   x x   x     x   x   x   x         x x   x     x   x   x


D#----------------------------------------------------------------------
A#----------------------------------------------------------------------
F#------------------------------------------------------------A.H.------
C#----------------------------------------------------------------------
G#-----5---3h5---7---5---8---7-5\3-----8---7h8---5---7---3-----5~~~-----
C#-0-0---0-----0---0---0---0-------0-0---0-----0---0---0---0-0----------
   x x   x     x   x   x   x       x x   x     x   x   x   x x


D#----------------------------------------------------------------------
A#----------------------------------------------------------------------
F#----------------------------------------------------------------------
C#---------------7---------------------------------5-------7-7-7-5------
G#-----8---7h8-------8---7---10-8-7------8---7h8-------8-----------8----
C#-8-8---8-----8---8---8---8---------5-5---5-----5---5---5--------------
   x x   x     x   x   x   x         x x   x     x   x   x


D#----------------------------------------------------------------------
A#----------------------------------------------------------------------
F#----------------------------------------------------------------A.H.--
C#----------------------------------------------------------------------
G#-----5---3h5---7---5---8---7-5\3-----12---10h12---8---10---7-----8~~~-
C#-0-0---0-----0---0---0---0-------0-0----0-------0---0----0---0-0------
   x x   x     x   x   x   x       x x    x       x   x    x   x x


D#----------------------------------------------------------------------
A#----------------------------------------------------------------------
F#----------------------------------------------------------------------
C#-------3---3-------3---3-----3p0-------7---7-------7---7-----2/3------
G#-------5---5-------5---5-----5p0-------8---8-------8---8-----4/5------
C#-8-888-------8-888-------888-----5-555-------5-555-------000----------
   x xxx       x xxx       xxx     x xxx       x xxx       xxx


D#----------------------------------------------------------------------
A#----------------------------------------------------------------------
F#----------------------------------------------------------------------
C#-------7---7-------7---7-----7---7---5---3---7---5---3---2---3p0------
G#-------8---8-------8---8-----8---8---7---5---8---7---5---4---5p0------
C#-0-000-------0-000-------000---0---0---0---0---0---0---0---0----------
   x xxx       x xxx       xxx   x   x   x   x   x   x   x   x


D#----------------------------------------------------------------------
A#----------------------------------------------------------------------
F#----------------------------------------------------------------------
C#-------3---3-------3---3-----3p0-------7---7-------7---7-----2/3------
G#-------5---5-------5---5-----5p0-------8---8-------8---8-----4/5------
C#-8-888-------8-888-------888-----5-555-------5-555-------000----------
   x xxx       x xxx       xxx     x xxx       x xxx       xxx


D#----------------------------------------------------------------------
A#----------------------------------------------------------------------
F#----------------------------------------------------------------------
C#-------7---7-------7---7-----7---7---5---3---7---5---3---2---3--------
G#-------8---8-------8---8-----8---8---7---5---8---7---5---4---5--------
C#-0-000-------0-000-------000---0---0---0---0---0---0---0---0---0------
   x xxx       x xxx       xxx   x   x   x   x   x   x   x   x   x


D#----------------------------------------------------------------------
A#----------------------------------------------------------------------
F#----------------------------------------------------------------------
C#-7---5---3---7---5---3---2---3---10----8---7---10----8---7---5---7~---
G#-8---7---5---8---7---5---4---5---12---10---8---12---10---8---7---8~---
C#---0---0---0---0---0---0---0---0----0----0---0----0----0---0---0------
     x   x   x   x   x   x   x   x    x    x   x    x    x   x   x


D#----------------------------------------------------------------------
A#----------------------------------------------------------------------
F#----------------------------------------------------------------------
C#-------0.--------0.--0------------------------------------------------
G#-------0.--------0.--0------------------------------------------------
C#-0000000.--0000000.--0------------------------------------------------
   xxxxxx    xxxxxx