20140828

BENISE SANTA BARBARA TAB


Benise - Santa Barbara - cool spanish guitar music.
See the TAB under the video.



BENISE SANTA BARBARA TAB

PDF >>

 Verse 1
 
  F#m                Bm
e-----------------------------------------------------------------------
B-----------------------------------------------------------------------
G-----------------------------------------------------------------------
D-----------------------------------------------------------------------
A-----------------------------------------------------------------------
E-----------------------------------------------------------------------

              E                                 A
e-----------------------------------------------------------------------
B-----------------------------------------------------------------------
G-----1-2-4---4/6-------------7---6.--4h6p4---2-2-----------------------
D-2/4-------------------------------------------------------------------
A-----------------------------------------------------------------------
E-----------------------------------------------------------------------

  E/G#                    F#m                 Bm
e-----------------------------------------------------------------------
B-3/5-3-3-----2---3-2h3p2-----------------------------------------------
G---------------------------4-2-----------------2---4---4/6-4-----------
D-----------------------------------------2---4-------------------------
A-------------------------------------2/4-------------------------------
E-----------------------------------------------------------------------



  E                                  A
e-----------------------------------------------------------------------
B-----------------------------------------------------------------------
G-7-6.--4h6p4-\-2-2-h4p2---2---2h4---2----------------------------------
D------------------------4----------------------------------------------
A-----------------------------------------------------------------------
E-----------------------------------------------------------------------


Chorus

                  Bm                            E
e---4.--5-4-----------------------------5h7-----5-----4-----------------
B-7---------------------------------------------------------5-----------
G-------------6.--6-h-7-7-----------------------------------------------
D-----------------------------------------------------------------------
A-----------------------------------------------------------------------
E-----------------------------------------------------------------------

  A                   E/G#            F#m
e---4---4-----5---5h7-5-----4---4h5p4-----------------------------------
B--5----------------------------------7---------------------------------
G-4---------------------------------------------------------------------
D-----------------------------------------------------------------------
A-----------------------------------------------------------------------
E-----------------------------------------------------------------------

                  Bm                            E
e---4.--5-4-----------------------------5h7-----5-----4-----------------
B-7---------------------------------------------------------5-----------
G-------------6.--6-h-7-7-----------------------------------------------
D-----------------------------------------------------------------------
A-----------------------------------------------------------------------
E-----------------------------------------------------------------------

  A                 E/G#            F#m
e-4---4-----5---7---7/9---7-----5-7-5-----------------------------------
B-----------------------------------------------------------------------
G-----------------------------------------------------------------------
D-----------------------------------------------------------------------
A-----------------------------------------------------------------------
E-----------------------------------------------------------------------

                  Bm                            E
e---4.--5-4-----------------------------5h7-----5-----4-----------------
B-7---------------------------------------------------------5-----------
G-------------6.--6-h-7-7-----------------------------------------------
D-----------------------------------------------------------------------
A-----------------------------------------------------------------------
E-----------------------------------------------------------------------

  A             E/G#            F#m
e-4-----5---5h7-5-----4---4h5p4-----------------------------------------
B-------------------------------7---------------------------------------
G-----------------------------------------------------------------------
D-----------------------------------------------------------------------
A-----------------------------------------------------------------------
E-----------------------------------------------------------------------

                  Bm                            E
e---4.--5-4-----------------------------5h7-----5-----4-----------------
B-7---------------------------------------------------------5-----------
G-------------6.--6-h-7-7-----------------------------------------------
D-----------------------------------------------------------------------
A-----------------------------------------------------------------------
E-----------------------------------------------------------------------

  A                E/G#          F#m                                 D
e-4-----5-----7---7/9---9---9h10-9-------9-10---10h12p10-10-10p9---9-10-
B-----------------------------------------------------------------------
G--------------------------------------11-------------------------------
D-----------------------------------------------------------------------
A-----------------------------------------------------------------------
E-----------------------------------------------------------------------

                                             E
e----12/14.--12.--10h12p10---9-10---10h12-10\9---9\7-7---9-7h9p7---5----
B-----------------------------------------------------------------------
G-----------------------------------------------------------------------
D-----------------------------------------------------------------------
A-----------------------------------------------------------------------
E-----------------------------------------------------------------------

           A
e--------4-5------------------------------------------------------------
B------7----------------------------------------------------------------
G-----------------------------------------------------------------------
D-----------------------------------------------------------------------
A-----------------------------------------------------------------------
E-----------------------------------------------------------------------


Chords
 
 F#m       Bm        E        A      E/G#            D
e-2--------2---------0--------0-------0-------0------2------------------
B-2--------3---------0--------2-------5-------0------3------------------
G-2--------4---------1--------2-------4-------1------2------------------
D-4--------4---------2--------2-------2-  or -2------0------------------
A-4--------2---------2--------0-------x-------x-------------------------
E-2------------------0----------------4-------4-------------------------


Verse 2
            F#m
e-----------------------------------------------------------------------
B-------2-3-2-----------------------------------------------------------
G-2/4-------------------------------------------------------------------
D-----------------------------------------------------------------------
A-----------------------------------------------------------------------
E-----------------------------------------------------------------------

  Bm                              E                             A
e-2-----0-------5-------4-------2-------0-------------------------------
B---3-------3-------3-------3-------3-------3---3/5-3---2---2---2-------
G-----4-------4-------4-------4-------4-------4-----------4-------------
D-----------------------------------------------------------------------
A-----------------------------------------------------------------------
E-----------------------------------------------------------------------

            E/G#            F#m
e-------------------------------------------------9h12-9----------------
B---------------------------------------5h7-5---------------------------
G-----2-4---4/6-------------2h4---2-------------------------------------
D-2-4-------------4-2-2-4-----------------------------------------------
A-----------------------------------------------------------------------
E-----------------------------------------------------------------------

          Bm                                  E
e----9-10-12/14---12-12\10-10---10---999-12p9\7---7---9---9/10-9---7--\-
B--10-------------------------------------------------------------------
G-11--------------------------------------------------------------------
D-----------------------------------------------------------------------
A-----------------------------------------------------------------------
E-----------------------------------------------------------------------

      A                 E/G#              F#m
e-5-5-------5\4---4-----5p4---4-----------------------------------------
B----------5----5---5-------5---5/7-5-\-2-2-----------------------------
G---------6-------------------------------------------------------------
D-----------------------------------------------------------------------
A-----------------------------------------------------------------------
E-----------------------------------------------------------------------

           Bm
e----9-10-12-10---10---9---10---10h12-10--------------------------------
B--10-------------------------------------------------------------------
G-11--------------------------------------------------------------------
D-----------------------------------------------------------------------
A-----------------------------------------------------------------------
E-----------------------------------------------------------------------

          E                           A
e-9999129\7-7-7---7---7h9p7-7-----5-7-5---------------------------------
B-----------------------------------------------------------------------
G-----------------------------------------------------------------------
D-----------------------------------------------------------------------
A-----------------------------------------------------------------------
E-----------------------------------------------------------------------

           E/G#            F#m
e----------5-7---7---7/9---7---9-------------(-4h5p4-)------------------
B------5-7-----------------------10-\-----------------------------------
G-/6--------------------------------------------------------------------
D-----------------------------------------------------------------------
A-----------------------------------------------------------------------
E-----------------------------------------------------------------------

             Bm
e-9-10-12-12-12--10-9-12-9----------------------------------------------
B---------------------------10------------------------------------------
G-----------------------------------------------------------------------
D-----------------------------------------------------------------------
A-----------------------------------------------------------------------
E-----------------------------------------------------------------------

      E                                A
e-2---2--/4-4---5---5--/7-7---/9--9----9--------------------------------
B-3---3--/5-5---7---7--/9-9---/10-10---10-------------------------------
G-----------------------------------------------------------------------
D-----------------------------------------------------------------------
A-----------------------------------------------------------------------
E-----------------------------------------------------------------------


Chorus 2

                  Bm                            E
e-2-4.--5-4-----------------------------5h7-----5-----4-----------------
B-------------2.--2-h-3-3-----------------------------------5-----------
G-----------------------------------------------------------------------
D-----------------------------------------------------------------------
A-----------------------------------------------------------------------
E-----------------------------------------------------------------------

  A                   E/G#            F#m
e-------4-----5---5h7-5-----4---4h5p4-----------------------------------
B-------------------------------------7---------------------------------
G-----------------------------------------------------------------------
D-----------------------------------------------------------------------
A-----------------------------------------------------------------------
E-----------------------------------------------------------------------

                  Bm                            E
e-2-4.--5-4-----------------------------5h7-----5-----4-----------------
B-2-----------2.--2-h-3-3-----------------------------------5-----------
G-2---------------------------------------------------------------------
D-----------------------------------------------------------------------
A-----------------------------------------------------------------------
E-----------------------------------------------------------------------

  A                 E/G#            F#m
e-4---4-----5---7---7/9---7-----5-7-5-----------------------------------
B-5---------------------------------------------------------------------
G-4---------------------------------------------------------------------
D-----------------------------------------------------------------------
A-----------------------------------------------------------------------
E-----------------------------------------------------------------------

                  Bm                            E
e---4.--5-4-----------------------------5h7-----5-----4------------4----
B-7---------------------------------------------------------5------5----
G-------------6.--6-h-7-7------------------------------------------4----
D-----------------------------------------------------------------------
A-----------------------------------------------------------------------
E-----------------------------------------------------------------------

  A             E/G#            F#m
e-4-----5---5h7-5-----4---4h5p4-----------------------------------------
B-------------------------------7---------------------------------------
G-----------------------------------------------------------------------
D-----------------------------------------------------------------------
A-----------------------------------------------------------------------
E-----------------------------------------------------------------------

                  Bm                            E
e---4.--5-4-----------------------------5h7-----5-----4------------4----
B-7---------------------------------------------------------5-----------
G-------------6.--6-h-7-7-----------------------------------------------
D-----------------------------------------------------------------------
A-----------------------------------------------------------------------
E-----------------------------------------------------------------------

  A                E/G#          F#m                                 D
e-4-----5-----7---7/9---9---9h10-9-------9-10---10h12p10-10-10p9---9-10-
B-----------------------------------------------------------------------
G--------------------------------------11-------------------------------
D-----------------------------------------------------------------------
A-----------------------------------------------------------------------
E-----------------------------------------------------------------------

                                             E
e----12/14.--12.--10h12p10---9-10---10h12-10\9---9\7-7---9-7h9p7---5----
B-----------------------------------------------------------------------
G-----------------------------------------------------------------------
D-----------------------------------------------------------------------
A-----------------------------------------------------------------------
E-----------------------------------------------------------------------

           A
e--------4-5------------------------------------------------------------
B------7----------------------------------------------------------------
G-----------------------------------------------------------------------
D-----------------------------------------------------------------------
A-----------------------------------------------------------------------
E-----------------------------------------------------------------------


Part 3
                Bm         E
e-0---2/4---4---5-------------------------------------------------------
B-2---3/5---5---7-------------------------------------------------------
G-----------------------------------------------------------------------
D-----------------------------------------------------------------------
A-----------------------------------------------------------------------
E-----------------------------------------------------------------------

                    A     E/G#                      F#m
e-5---5\4---4-----0-----------------------------------------------------
B-7---7\5---5-\-3---2---------------------------------------------------
G-----------------------------2-4-4/6---4h6p4---2---2-------------------
D-------------------------------------------------4---------------------
A-----------------------------------------------------------------------
E-----------------------------------------------------------------------

              Bm                                  E
e-----------------------------------------------------------------------
B-----------------------------------------------------------------------
G-----2---4-2-4/6-----------------4/6---4/6---4/6-4---------------------
D-2h4-------------------------------------------------------------------
A-----------------------------------------------------------------------
E-----------------------------------------------------------------------

              A
e-----------------------------------------------------------------------
B-----------------------------------------------------------------------
G-----2---2h4-2---------------------------------------------------------
D-2h4-------------------------------------------------------------------
A-----------------------------------------------------------------------
E-----------------------------------------------------------------------

                     Bm                           E
e-0---0----2/4---4---5----------------------------0---------------------
B-2---2----3/5---5---7------------------7-------7-----------------------
G-------------------------------------7-----7---------------------------
D---------------------------------9-------------------------------------
A-----------------------------------------------------------------------
E-----------------------------------------------------------------------

                    A                   E/G#          F#m
e-5---5\4---4-----0---------------------5-------------4-----------------
B-7---7\5---5-\-3---2-----------------------5-----5---------------------
G---------------------------------2-/-6-------6-------------------------
D-----------------------------------------------------------------------
A-----------------------------------------------------------------------
E-----------------------------------------------------------------------

                          Bm                               E
e--------------------------------------------------2-------0------------
B------------------------------------------------3-----3----------------
G---------------2---4/6-6\4---4--------------4--------------------------
D-2-2---2---4-----------------------------------------------------------
A-----------------------------------------------------------------------
E-----------------------------------------------------------------------

                                    A               E/G#          F#m
e---------------------------------------------------5-------------4-----
B-------------------------------------------------------5-----5---------
G-4/6---4/6\4-2-2---4/6-4h6p4-\-2---2---------2-/-6-------6-------------
D---------------------------------4-------------------------------------
A-----------------------------------------------------------------------
E-----------------------------------------------------------------------

                     Bm                           E
e-0---0----2/4---4---5----------------------------0---------------------
B-2---2----3/5---5---7------------------7-------7-----------------------
G-------------------------------------7-----7---------------------------
D---------------------------------9-------------------------------------
A-----------------------------------------------------------------------
E-----------------------------------------------------------------------

                    A                   E/G#          F#m
e-5---5\4---4-----0---------------------5-------------4-----------------
B-7---7\5---5-\-3---2-----------------------5-----5---------------------
G---------------------------------2-/-6-------6-------------------------
D-----------------------------------------------------------------------
A-----------------------------------------------------------------------
E-----------------------------------------------------------------------

                          Bm                               E
e--------------------------------------------------2-------0------------
B------------------------------------------------3-----3----------------
G---------------2---4/6-6\4---4--------------4--------------------------
D-2-2---2---4-----------------------------------------------------------
A-----------------------------------------------------------------------
E-----------------------------------------------------------------------

                                  A
e-----------------------------------------------------------------------
B-----------------------------------------------------------------------
G-4/6---4/6\4p2-2---4/6-4h6p4-\-2-2.------------------------------------
D-------------------------------------------------------------------2.--
A-------------------------------------------------------2.----2/4-------
E-------------------------------------0-----2.----2/5-------------------


e-----------------------------------------------------------------------
B-----------------------------------------------------------------------
G--------2.----2h4------------------------------------------------------
D-2/4----------------2/4------------------------------------------------
A-----------------------------------------------------------------------
E-----------------------------------------------------------------------


Part 4

  Bm                             E
e-----------------------------------------------------------------------
B-----------------------------------------------------------------------
G-6--------6---6-6-4---6---6/7-6--\4-4-4--------------------------------
D-----------------------------------------------------------------------
A-----------------------------------------------------------------------
E-----------------------------------------------------------------------

                 A              E/G#                F#m
e-----------------------------------------------------------------------
B-----------------------------------------------------------------------
G----6-7-9-7---7\6---6-6\4-4---4h6p4\2-2---4---4/6-4h6p4\2-2-----2------
D---x--------------------------------------------------------4----------
A--x--------------------------------------------------------------------
E-x---------------------------------------------------------------------

         Bm                                         E
e--------12------------10---------------------9-10-10h12-10\9---9-9-----
B-10\9-9--------10\9-9--------10\9----9-10-12---------------------------
G----------------------------------11-----------------------------------
D-----------------------------------------------------------------------
A-----------------------------------------------------------------------
E-----------------------------------------------------------------------

          A               E/G#          F#m
e-7h9-7-7\5-5-----7h9-7-7\5-5-------------------------------------------
B-------------------------------5h7-5-----------------------------------
G---------------------------------------4h6-4h6p4\2-2---2h4---2---------
D-----------------------------------------------------4-----------------
A-----------------------------------------------------------------------
E-----------------------------------------------------------------------

  Bm                            E
e-2-----2-----5-----4-----2-----0-------0-----2-----0-----0-------------
B---3-----3-----3-----3-----3-------0-----0-----0-----0-----0---0-------
G-----4-----4-----4-----4-----4-------1-----1-----1-----1-----1---------
D-----------------------------------------------------------------------
A-----------------------------------------------------------------------
E-----------------------------------------------------------------------

  A               E/G#            F#m
e---5-----7-----5---4-------0-------2-----2-----5-----4-----2h4p2-------
B-----5-----5---------5---5---0-------2-----2-----2-----2---------2-----
G-6-----6-----6---4-----4-------1-2-----2-----2-----2-----2-------------
D-----------------------------------------------------------------------
A-----------------------------------------------------------------------
E-----------------------------------------------------------------------

  Bm                              E
e-----2-----2-----5-----4-----2-------0-----0-----2-----0-----0---------
B-------3-----3-----3-----3-----3---0---0-----0-----0-----0-----0-------
G-4-------4-----4-----4-----4-----1-------1-----1-----1-----1-----------
D-----------------------------------------------------------------------
A-----------------------------------------------------------------------
E-----------------------------------------------------------------------

  A               E/G#            F#m
e---5-----7---------4-----0---------2-----2-----------------------------
B-----5-------5-------5-------0-------2---------------------------------
G-6-----6-------6-4-----4-------1-2-----2-------------------------------
D-----------------------------------------------------------------------
A-----------------------------------------------------------------------
E-----------------------------------------------------------------------


The End

                     Bm                               E
e----2-4---5-4-2---2/4-------------22222222h4p2p0-0-0-0-2-2/4---4-4\----
B---2-------------------------------------------------------------------
G--2--------------------------------------------------------------------
D-----------------------------------------------------------------------
A-----------------------------------------------------------------------
E-----------------------------------------------------------------------

              A                  E/G#            F#m
e---------5-7/9----------99999p7---7-----7-9-7h9p7-\-5-5----------------
B-----5-7---------------------------------------------------------------
G-4/6-------------------------------------------------------------------
D-----------------------------------------------------------------------
A-----------------------------------------------------------------------
E-----------------------------------------------------------------------

                Bm                                     A
e---10-12---12---10---10---9----9-\7-7---7\5-5---5\4---4----------------
B--x-----------------------10---10\9-9---9\7-7---7\5---5----------------
G-x---------------------------------------------------------------------
D-----------------------------------------------------------------------
A-----------------------------------------------------------------------
E-----------------------------------------------------------------------

                           A
e-----------------------------------------------------------------------
B-----------------------------------------------------------------------
G---------2-----2h4-2---------------------------------------------------
D-2-2-2h4---------------------------------------------------------------
A-----------------------------------------------------------------------
E-----------------------------------------------------------------------

                                      A
e-------------------------------------5---------------------------------
B-------------------------------------2---------------------------------
G-2h4---2-----------------------------2---------------------------------
D-----------2h4---2-------------------2---------------------------------
A---------------------2h4---2h4p2-0---0---------------------------------
E-----------------------------------------------------------------------