20140831

MINAMI SPARKING SLASH TAB (COVER BY STEINBERCO)


Time to start rocking now ...
Sparking Slash guitar cover played by Steinberco.
See TAB of the lead part under the video.



MINAMI SPARKING SLASH TAB

PDF >>

Part 1

e-------------------------------------2---------------/2----------------
B-2----------------------------2------2-2----------------5-2------------
G-4(6)-------------------------4(6)-----4(6)-----------------5-4-2~-----
D-----------------------------------------------------------------------
A-----------------------------------------------------------------------
E-----------------------------------------------------------------------
                                                         x x x x

e-----------------------------------------------------------------------
B--------------------------------------------------2-4---4(6)---4-2-----
G-----4(6)---4(6)(4)p2-4-2~--------------------2-4------------------6~--
D-4--------------------------4---4~--------2-4--------------------------
A----------------------------------------4------------------------------
E-----------------------------------------------------------------------
                                           x x x x x

e-----------------------------------------------------------------------
B-12(14)------------12(14)---12-10-12-10-\------------------------------
G-----------------------------------------------------------------------
D-----------------------------------------------------------------------
A-----------------------------------------------------------------------
E-----------------------------------------------------------------------



e-----14-14-------14-14-------14----------14-16-16(17)--(16)p14-16-14-\-
B-/14-14-14-------14-14-------14-17(19)---------------------------------
G-----------16(18)------16(18)------------------------------------------
D-----------------------------------------------------------------------
A-----------------------------------------------------------------------
E-----------------------------------------------------------------------


Part 2

e-----------------------------------------------------------------------
B----------------------------------10-9---------------------------------
G----9-11.------9-11.------9-11---------11-9----------------------------
D-11--------/11--------/11------11--------------------------------------
A-----------------------------------------------------------------------
E-----------------------------------------------------------------------
  x  x       x  x       x  x x  x

e---------------------------------9-------------------------------------
B-----------------------------------12-10-9-----------------------------
G-------9.--------9.------9-11------------------------------------------
D-/9-11-----/9-11-----/11------11---------------------------------------
A-----------------------------------------------------------------------
E-----------------------------------------------------------------------
   x x       x x       x  x x  x

e-----------------------------------------------------------------------
B----------------------------------10-9------10(12)---10---9------------
G----9-11.------9-11.------9-11---------11-9-------------------9---9/11~
D-11--------/11--------/11------11--------------------------------------
A-----------------------------------------------------------------------
E-----------------------------------------------------------------------
  x  x       x  x       x  x x  x


Part 3

e-----------------------------------------------------------------------
B-----------------------4(6)-(4)-2--------------------------------------
G---------2---2-4---4-4-4(6)-(4)-2--------------------------------------
D-4---4-4-2---2-4---4-4-------------------------------------------------
A-4---4-4-0---0-2---2-2-------------------------------------------------
E-2---2-2---------------------------------------------------------------


e-----------------------------------------------------------------------
B-----------------------------------------------------------------------
G---------2---2-4---4-4-x-----------------------------------------------
D-4---4-4-2---2-4---4-4-x-2-1-------------------------------------------
A-4---4-4-0---0-2---2-2-x-----2-----------------------------------------
E-2---2-2---------------------------------------------------------------
                          x x


Part 4

e-----------------------------------------------------------------------
B-----------------------------------------------7-7--9-9-9-9-10101010---
G-6-6-6-6-6-6-6-6--6-6-6-6-6-6-6-6--6-6-6-6-6-6-------------------------
D-----------------------------------------------4-4--6-6-6-6-7-7-7-7----
A-4-4-4-4-4-4-4-4--4-4-4-4-4-4-4-4--4-4-4-4-4-4-------------------------
E-----------------------------------------------------------------------


e-----------------------------------------------------------------------
B---------------------------------------7-7-7-7-7-7-9-9-9-9-10---\------
G-6-6-6-6-6-6-6-6--6-6-6-6-6-6-6-6--6-6---------------------------------
D---------------------------------------4-4-4-4-4-4-6-6-6-6-7----\------
A-4-4-4-4-4-4-4-4--4-4-4-4-4-4-4-4--4-4---------------------------------
E-----------------------------------------------------------------------



Part 2



Part 5

e-----------------------------------------------------------------------
B---------------------------------------9-10-9~--\----------------------
G---------------------9-11~-------------------------/9-11.--------------
D-----9-11~-------/11---------------/11---------------------11~---------
A-/11-------------------------------------------------------------------
E-----------------------------------------------------------------------


e-----------------------------------------------------------------------
B---------------------------------------9-10-9~----10.--12.--12(14)~----
G-----9-11~-----------9-11~---------------------------------------------
D-/11-------------/11---------------/11---------------------------------
A-----------------------------------------------------------------------
E-----------------------------------------------------------------------


e-----------------------------------------------------------------------
B-(14)-12-10-9----9-10~---9---------------------------------------------
G--------------11-----------11-9-11~------------------------------------
D-----------------------------------------------------------------------
A-----------------------------------------------------------------------
E-----------------------------------------------------------------------


e-----------------------------------------------------------------------
B-------------9-10~---9------12(14)~------------------------------------
G----11----11-----------11-9--------------------------------------------
D-11----11--------------------------------------------------------------
A-----------------------------------------------------------------------
E-----------------------------------------------------------------------


e-----------------------------------------------------------------------
B-12-10-9----9-10~---9------12(14)---12-10-12-10-9---------9-10~--------
G---------11-----------11-9------------------------11-9-11--------------
D-----------------------------------------------------------------------
A-----------------------------------------------------------------------
E-----------------------------------------------------------------------


e-----------------------------------------------------------------------
B-9----------------------------------9-10~---9------12(14)~-------------
G---11-9-11~----------------11----11-----------11-9---------------------
D------------------------11----11---------------------------------------
A-----------------------------------------------------------------------
E-----------------------------------------------------------------------


e-----------------------------------------------------------------------
B-12-10-9----9-10~---9------12(14)---12-10-12-10-9-------------14.------
G---------11-----------11-9------------------------11-9-/14-16----------
D-----------------------------------------------------------------------
A-----------------------------------------------------------------------
E-----------------------------------------------------------------------


e-----------------------------------------------------------------------
B-----14-17-17(19)~~~---------------------------------------------------
G-/16-------------------------------------------------------------------
D-----------------------------------------------------------------------
A-----------------------------------------------------------------------
E-----------------------------------------------------------------------


Part 6

e-----------------------------------------------------------------------
B-----------------------------------------------------------------------
G-----4---2--------------------------4---2------------------------------
D-4-4-4---2----------4-x-6-x-7---4-4-4---2----------4-x-6-x-7-----------
A-4-4-2---0----------4-x-6-x-7---4-4-2---0----------4-x-6-x-7-----------
E-2-2----------------2-x-4-x-5---2-2----------------2-x-4-x-5-----------
  x x                            x x

e-----------------------------------------------------------------------
B-----------------------------------------------7-7--9-9-9-9-10101010---
G-6-6-6-6-6-6-6-6--6-6-6-6-6-6-6-6--6-6-6-6-6-6-------------------------
D-----------------------------------------------4-4--6-6-6-6-7-7-7-7----
A-4-4-4-4-4-4-4-4--4-4-4-4-4-4-4-4--4-4-4-4-4-4-------------------------
E-----------------------------------------------------------------------


e-----------------------------------------------------------------------
B-----------------------------------------------7-7--9-9-9-9-10---------
G-6-6-6-6-6-6-6-6--6-6-6-6-6-6-6-6--6-6-6-6-6-6-------------------------
D-----------------------------------------------4-4--6-6-6-6-7----------
A-4-4-4-4-4-4-4-4--4-4-4-4-4-4-4-4--4-4-4-4-4-4-------------------------
E-----------------------------------------------------------------------



Part 7

e-----------------------------------------------------------------------
B-----------------------------------10-9--------------------------------
G-----9-11.------9-11.------9-11---------11-9---------------------------
D-/11--------/11--------/11------11-------------------------------------
A-----------------------------------------------------------------------
E-----------------------------------------------------------------------
   x  x       x  x       x  x x  x

e-----------------------------------------------------------------------
B-----------------10----------------------------------------------------
G-------9----9-11----11~----11-9----9-----------------------------------
D-/9-11---11---------------------11---11~-------------------------------
A-----------------------------------------------------------------------
E-----------------------------------------------------------------------
   x x    x  x x  

e-----------------------------------------------------------------------
B-----------------------------------10-9--------------------------------
G-----9-11.------9-11.------9-11---------11-9---------------------------
D-/11--------/11--------/11------11-------------------------------------
A-----------------------------------------------------------------------
E-----------------------------------------------------------------------
   x  x       x  x       x  x x  x

e----------12-----------------------------------------------------------
B-12(14)------12(14)(12)-10-9-10----------------------------------------
G----------------------------------11-11~-------------------------------
D-----------------------------------------------------------------------
A-----------------------------------------------------------------------
E-----------------------------------------------------------------------


Part 8

e-----------------------------------------------------------------------
B-----------------------------------------------------------------------
G-----------------9----9-11---11(13)(11)~-------------------------------
D-----9-11~---------11--------------------------------------------------
A-/11-------------------------------------------------------------------
E-----------------------------------------------------------------------


e-----------------------------------------------------------------------
B-----9-10-9~-----------------------------------------------------------
G-----------------9-11.-------------------------------------------------
D-/11--------------------11~--------------------------------------------
A-----------------------------------------------------------------------
E-----------------------------------------------------------------------


e-----------------------------------------------------------------------
B-----------------10------------10~------9~-----10.---12.---12(14)~~~---
G-----9-11~----------11-11~---------------------------------------------
D-/11-------------------------------------------------------------------
A-----------------------------------------------------------------------
E-----------------------------------------------------------------------


e-----------------------------------------------------------------------
B-12(14)-12-10-9----9-10~---9-------------------------------------------
G----------------11-----------11-9-11~----------------------------------
D-----------------------------------------------------------------------
A-----------------------------------------------------------------------
E-----------------------------------------------------------------------


e-----------------------------------------------------------------------
B-------------9-10~---9------12(14)~------------------------------------
G----11----11-----------11-9--------------------------------------------
D-11----11--------------------------------------------------------------
A-----------------------------------------------------------------------
E-----------------------------------------------------------------------


e-----------------------------------------------------------------------
B-12-10-9----9-10~---9------12(14)---12-10-12-10-9---------9-10~--------
G---------11-----------11-9------------------------11-9-11--------------
D-----------------------------------------------------------------------
A-----------------------------------------------------------------------
E-----------------------------------------------------------------------


e-----------------------------------------------------------------------
B-9----------------------------------9-10~---9------12(14)~-------------
G---11-9-11~----------------11----11-----------11-9---------------------
D------------------------11----11---------------------------------------
A-----------------------------------------------------------------------
E-----------------------------------------------------------------------


e-----------------------------------------------------------------------
B-12-10-9----9-10~---9------12(14)---12-10-12-10-9----------------------
G---------11-----------11-9------------------------11-9-----------------
D-----------------------------------------------------------------------
A-----------------------------------------------------------------------
E-----------------------------------------------------------------------


e------------12-12/14-14~-----------\\\---------------------------------
B----9-10/12------------------------------------------------------------
G-11--------------------------------------------------------------------
D-----------------------------------------------------------------------
A-----------------------------------------------------------------------
E-----------------------------------------------------------------------


Part 9

e-14-----------------------14---14-14-----------------------------------
B-14-----------------------14---14-14-----------------------------------
G-----------------------------------------------------------------------
D-----------------------------------------------------------------------
A-----------------------------------------------------------------------
E-----------------------------------------------------------------------


e-14---14-14--------14-14--------14-------------------------------------
B-14---14-14--------14-14--------14-17(19)~-----------------------------
G------------16(18)-------16(18)----------------------------------------
D-----------------------------------------------------------------------
A-----------------------------------------------------------------------
E-----------------------------------------------------------------------


e-14-16.--16(17)-(16)p14-16-14~-----------------------------------------
B-----------------------------------------------------------------------
G-----------------------------------------------------------------------
D-----------------------------------------------------------------------
A-----------------------------------------------------------------------
E-----------------------------------------------------------------------


e----------14-----------------------------------------------------------
B-17(19)------17-14-16-16(17)---(16)p14-16-14~--------------------------
G-----------------------------------------------------------------------
D-----------------------------------------------------------------------
A-----------------------------------------------------------------------
E-----------------------------------------------------------------------


e-----------------------------------------------------------------------
B-16(18)--------16(18)-----16(18)---16----------------------------------
G-16(18)--------16(18)-----16(18)---16-14-15----------------------------
D--------------------------------------------16~------------------------
A-----------------------------------------------------------------------
E-----------------------------------------------------------------------


e-----------------------------------------------------------------------
B---------14--17p14--14-------------------------------------------------
G-16(18)-----------16--17p16p14--14-16-16(18)(16)p14-16p14--------------
D------------------------------16-------------------------16--14-16~----
A-----------------------------------------------------------16----------
E-----------------------------------------------------------------------


e-------------------------------16-17/19-16---\\\-----------------------
B-----------14-16(17)(16)-17/19-----------------------------------------
G-----13-16-------------------------------------------------------------
D-----------------------------------------------------------------------
A-/16-------------------------------------------------------------------
E-----------------------------------------------------------------------


Part 10

e-----------------------------------------------------------------------
B-----------------------------------------------------------------------
G-----------------------9-----------------------------------------------
D-----9-11~----------11---11~-------------------------------------------
A-/11-------------------------------------------------------------------
E-----------------------------------------------------------------------


e-----------------------------------------------------------------------
B-----------------10-12(14).--12(14)(12)p10-12-10-----------------------
G-------9----9-11-----------------------------------9-9~----------------
D-11-11---11------------------------------------------------------------
A-----------------------------------------------------------------------
E-----------------------------------------------------------------------


e---------------------------12.-----------------------------------------
B---------------9---10-12.-------12~------------------------------------
G--------8-9-11---------------------------------------------------------
D-7-9-11----------------------------------------------------------------
A-----------------------------------------------------------------------
E-----------------------------------------------------------------------


e-----------------------------------------------------------------------
B-9-10-12-10-9--------------------------10------------------------------
G--------------11-9--------9-11~-----------11~------\\\-----------------
D---------------------11------------------------------------------------
A-----------------------------------------------------------------------
E-----------------------------------------------------------------------


e-----------------------------------------------------------------------
B-----------------------------------------------------------------------
G-----------------------------------------------------------------------
D-/11---11---11-11.--11~------------------------------------------------
A-----------------------------------------------------------------------
E-----------------------------------------------------------------------


e-----------------------------------------------------------------------
B-----------------------------------------------------------------------
G-------------------/9---11---------------------------------------------
D-11-11---12---14----------/12.--/11.--12-------------------------------
A-------------------------------------------12-12~----------------------
E-----------------------------------------------------------------------


e-----------------------------------------------------------------------
B-----------------------------------------------------------------------
G---------------------------------------------------9h11p9--------------
D------------------------------9-------9-11----9-11--------11-----------
A-7-5-7-9-11-7-9-11-12-9-11-12---11-12------12--------------------------
E-----------------------------------------------------------------------


e-----------------------------------------------------------------------
B------10-----9.--10.--12.--12(14)~~~-----------------------------------
G-9h11----9-9-----------------------------------------------------------
D-----------------------------------------------------------------------
A-----------------------------------------------------------------------
E-----------------------------------------------------------------------



Part 5



Part 11

e-----------------------------------------------------------------------
B-16(18)-------(18)(16)-16----------------------------------------------
G-16(18)-------(18)(16)-16-14---15--------------------------------------
D----------------------------------16~----------------------------------
A-----------------------------------------------------------------------
E-----------------------------------------------------------------------


e-/14.--14.--14---16-16(17)---16-14-16-14~------------------------------
B-/14.--14.--14---------------------------------------------------------
G-----------------------------------------------------------------------
D-----------------------------------------------------------------------
A-----------------------------------------------------------------------
E-----------------------------------------------------------------------


e----------14-----------------------------------------------------------
B-17(19)------17-14-16-16(17)(16)p14-16-14~-----\\\---------------------
G-----------------------------------------------------------------------
D-----------------------------------------------------------------------
A-----------------------------------------------------------------------
E-----------------------------------------------------------------------


e---------14-14--------14-14--------14-14--------14---------------------
B---------14-14--------14-14--------14-14--------14---------------------
G-/16(18)-------16(18)-------16(18)-------16(18)----16~~~---------------
D-----------------------------------------------------------------------
A-----------------------------------------------------------------------
E-----------------------------------------------------------------------


e---------14-14--------14-14--------14-14-------------------------------
B---------14-14--------14-14--------14-14-17-17-16~---------------------
G-/16(18)-------16(18)-------16(18)-------16-16-16~---------------------
D-----------------------------------------------------------------------
A-----------------------------------------------------------------------
E-----------------------------------------------------------------------


e------------14---------------------------------------------------------
B----------14--14-17(19)(17)-14-17p16p14-14-----------------------------
G-16(18)------------------------------------17p16p14-14-14------14------
D-----------------------------------------------------------16----------
A-----------------------------------------------------------------------
E-----------------------------------------------------------------------


e-----------------------------------------------------------------------
B-----------------------------------------------------------------------
G-16(18)---16(18)---14h15-----------------------------------------------
D-------------------------16~--------------/14-14-14-13.----------------
A-----------------------------------------------------------------------
E-----------------------------------------------------------------------


e-/14-------------------------------------------------------------------
B-----17-14-------------------------------------------------------------
G-----------17-16-14----------------------------------------------------
D--------------------16~------------------------------------------------
A-----------------------------------------------------------------------
E-----------------------------------------------------------------------


Finish

e-----------------------------------------------------------------------
B-----------------------------------------------------------------------
G----------14h15h16-----------------------------------------------------
D-14h15h16--------------------------------------------------------------
A-------------------16p14-16p14\12--------------------------------------
E----------------------------------12h13h14-14~~~----\\\----------------