20140803

THOMAS75S BLUES SOLO TAB (GP5 GP6 PDF)


Thomas75s plays a cool blues guitar solo - in the key of A - with a Gibson LesPaul.
The original video title says only "Blues Solo" - "messing around with some bluesy stuff".
See the TAB under the video.



THOMAS75S BLUES SOLO TAB

GP5 + GP6 + PDF >> 

  A
e----------------------5------------------------------------------------
B-8(10)~-----------------8p5--------------------------------------------
G----------------------------7-5'---------------------------------------
D----------------------------------7.-----------------------------------
A-----------------------------------------------------------------------
E-----------------------------------------------------------------------


e-----5-8p5-7p5---------------------5.----------------------------------
B---5-----------8p5-8p5-------------------------------------------------
G-6---------------------8p7p5---5h6-------------------------------------
D-----------------------------7-----------------------------------------
A-----------------------------------------------------------------------
E-----------------------------------------------------------------------
  x x x


  D7                                                A
e-----------------------------------------------------------------------
B-------3-----------3-----------3-----------x-5'------------------------
G-------------5~----------5~----------5-----x-5'------------------------
D-2/4-----4-----------4-----------4---------x-------7---7.--------------
A-----------------------------------------------------------------------
E-----------------------------------------------------------------------



e-----9------10------11------12-----------------------------------------
B-/10-----10------10------10------10~-----\\\---------------------------
G-----------------------------------------------------------------------
D-----------------------------------------------------------------------
A-----------------------------------------------------------------------
E-----------------------------------------------------------------------




DOWNLOAD THIS TAB IN GUITAR PRO



  • click 'Free Download'
  • add your e-mail address
  • you will get an e-mail with your download links (in a few seconds)
  • download the Guitar Pro 6 tab + GP5 + PDF for free
  • and that's all ...


Guitar Pro: a complete workshop for guitarists at an affordable price